Song name
# A B C D E F G H I J K L M N O P Q R S T U V W X Y Z

Jennifer Knapp - Hallowed tab

This song is the second track of of the self-titled debut (which is amazing.). It
was acualy really easy to figure out, and its not a hard song. Bare with me.

Drop D: D,A,D,G,B,E

# PalmMute
t Tremelo
h hammerOn
p PullOff

Intro/Outro
(Im Not sure about the OpenD chords, but it sounds fine without them ebcause of the abss drums.)
|--------------------------------------------------------------|
|--------------------------------------------------------------|
|--------------------------------------------------------------|
|--------------------------------------------------0-2-4-6-5-3-|
|-3h50003h50003h5-3h50003h5000-6p5-3h50003h50003h5-0-2-4-6-5-3-|
|----000---000-------000---000--------000---000----0-2-4-6-5-3-|
 *PamlMute Open Strings All Chords*

Verse
                             Rythm Guitar-V 0:20
|-------------------------  |--------------|
|-------------------------  |--------------|
|-------------------------  |--------------|
|-6-0-0#-0#-0-6-0---------  |-12-[Sustain]-|
|-6-0-0#-0#-0-6-0-3h4-3h4-  |-12-[Sustain]-|
|-6-0-0#-0#-0-6-0-3h4-3h4-  |-12-[Sustain]-|

Pre-Chrous
Play this at only!at 40 seconds, follow stars
|-----------------------------------------|--------------|
|--------------***************************|--------------|
|-------------~*--------------------------|--------------|
|-0t#------0h2-3/7------------------------|--------------|
|-0t#------0h2-3/7-------------5p0--------|--------------|
|-0t#------0h2-3/7----0#-2#-4#-----6p3----|-000444222666-|
 alot...               ^     x2           PM............
Play this at 42 seconds^


Chorus

|-----------------------------------------|
|-----------------------------------------|
|--------14/16-17\16-14/1616--------------|
|-0---------------------------6---33#-33#-|
|-0------12/14-15\14-12/1414--6---33#-33#-|
|-0---------------------------6---33#-33#-|

Bridge

|---------------------------|
|---------------------------|
|---------------------------|
|-0-0-0--0-0-0-0-0-0--0-3/5-|
|-0-0-0--0-0-0-0-0-0--0-3/5-|
|-0-0-0--0-0-0-0-0-0--0-3/5-| x1 (Initiate PickScrapes) Then repeat
PM.........................

Solo (Im pretty sure its wrong though..)

|--------------------------------------------------------------------|
|--------------------------------------------------------------------|
|-8p7h8p7h8p7h8p7h8p7h8p7h8p7h8p7/10p9h10p9h10p9h10p9h10\6p5h6p5h6p5-|
|--------------------------------------------------------------------|
|--------------------------------------------------------------------|
|--------------------------------------------------------------------|


Order-
Intro x2
Verse xHowever
PreChorus x1
Chorus x4
Intro x2
Verse xHowever
PreChorus x1
Chorus x4
Bridge x2
Solo x2
Chorus x4
Outro x2
Tap to rate this tab
# A B C D E F G H I J K L M N O P Q R S T U V W X Y Z