Song name
# A B C D E F G H I J K L M N O P Q R S T U V W X Y Z

Jennifer Knapp - By And By tab

Title: By and By
Artist: Virginia Coalition
Album: Rock and Roll Party
Tabbed by Matthew Schilling

I can't really figure out the chorus I've never tabbed anything before
So I just play the same progression the whole song and it sounds good

Intro/Verse
-7---5---5---5---5---|
-9---5---7---7---5---|
-9---6---7---7---6---|
-9---7---7---7---7---|
-7---7---5---5---7---|
-x---5---x---5---x---|

Main Riff
---------------------------------|
---------------------------------|
9-9-9-9-9------------------------|
-------------9-11-12-11-11-9-----|
---------------------------------|
---------------------------------|

---------------------------------|
---------------------------------|
9-9-9-9-9------------------------|
-------------9-11-12-11-9--------|
---------------------------------|
---------------------------------|
Tap to rate this tab
 
# A B C D E F G H I J K L M N O P Q R S T U V W X Y Z