Song name
# A B C D E F G H I J K L M N O P Q R S T U V W X Y Z

Jennifer Lopez - Lets Get Loud tab

-------------------------------------------------------------------------------
			     LETS GET LOUD - Jennifer Lopez
-------------------------------------------------------------------------------
Tabbed by: metallhead
Email: homesticky@gmail.com

Tuning: E A D G B E

Gtr I (E A D G B E) - 'Voice'
Gtr II (E A D G B E) - 'Voice Oohs'
Gtr III (E A D G B E) - 'Rhythm'
Gtr IV (E A D G B E) - 'Rhythm'
Gtr V (E A D G B E) - 'Piano'

  Q=134
 4/4
  Gtr III
   E E  E  E  E  E E  E   E  E E  E  Q    E  S S
|-15---15-13-16---------|------------------------|
|---------------18---20-|-----------18------18---|
|-----------------------|---19---19------19------|
|-----------------------|------------------------|
|-----------------------|------------------------|
|-----------------------|------------------------|
|
| Gtr IV
|  E E  E  E  E  E E  E   E  E E  E  E E  E  E
|--3----3--1--4--1----3-|------------1-------1---|
|--4----4--3--3--3----3-|----3----3--3----3------|
|--5----5--1--1--1----4-|----4----4--1----1--1---|
|-----------------------|----5----5-------3------|
|-----------------------|------------------------|
|-----------------------|------------------------|


   E E  E E E  E  E  E   E  E Q  H
|----------------------|--------------|
|-16----------18-18----|--------------|
|------17-----------19-|--------------|
|----------------------|---21---------|
|----------------------|--------------|
|----------------------|--------------|
|
|  E E  E E E  E  E  E   E  E Q  H
|----------------------|--------------|
|--4-----------6--6----|--------------|
|--5----5------7--7--7-|--------------|
|--5----5------6--6--9-|----9---------|
|-------6------------8-|----8---------|
|----------------------|---10---------|


  Gtr I
   W                      W
|-----------------------|-----------------------|
|-----------------------|-----------------------|
|-----------------------|-----------------------|
|-----------------------|-----------------------|
|-----------------------|-----------------------|
|-----------------------|-----------------------|
|
| Gtr II
|  W                      W
|-----------------------|-----------------------|
|-----------------------|-----------------------|
|-----------------------|-----------------------|
|-----------------------|-----------------------|
|-----------------------|-----------------------|
|-----------------------|-----------------------|
|
| Gtr III
|  E E  E  E  E  E E  E   E  E E  E  Q   E  S S
|------------16---------|-----------------------|
|-20---20-18----18---20-|-----------18-----18---|
|-----------------------|---19---19-----19------|
|-----------------------|-----------------------|
|-----------------------|-----------------------|
|-----------------------|-----------------------|


   W                     H          E  E  Q
|----------------------|-----------11----10---|
|----------------------|----------------------|
|----------------------|----------------------|
|----------------------|----------------------|
|----------------------|----------------------|
|----------------------|----------------------|
|
|  W                     H          E  E  E E
|----------------------|------------7-----7---|
|----------------------|------------8-----8---|
|----------------------|------------8-----7---|
|----------------------|------------9-----9---|
|----------------------|----------------------|
|----------------------|----------------------|
|
|  E E  E E E  E  E  E   E  S S Q   E  E  Q
|----------------------|----------------------|
|-16----------18-18----|--------------21------|
|------17-----------19-|--------------19------|
|----------------------|---21---------18------|
|----------------------|---20-----------------|
|----------------------|---22-----------------|


   Q.      E  E    E E  E    +E   E Q     Q   E  E
|--8---------11---15---13-|-(13)-15----------------|
|-------------------------|------------------16-15-|
|-------------------------|------------------------|
|-------------------------|------------------------|
|-------------------------|------------------------|
|-------------------------|------------------------|
|
|  Q     Q    S S  E E  E    +E   E Q     Q   E  E
|-------------------------|------------------------|
|--8---------------8----6-|--(6)--8-----------8----|
|--8----------8----8----7-|--(7)--7-----------8--7-|
|-10---------10---10----9-|--(9)--9----------------|
|-------------------------|------------------------|
|-------------------------|------------------------|
|
|  E  E  E E  E    E E  E     E   E E  E  Q   E  E
|-------------------------|------------------16----|
|-20----20--------21---20-|------20------18--------|
|-------------------------|-----------19-----13----|
|-17----17--------18---17-|------17------15--------|
|-------------------------|-----------17-----------|
|-------------------------|------------------------|


   E  S S  E  E  E  E E  E   E  E  E  E  Q    Q
|---------------11-15---13-|---13-13-15-----------|
|-13-13---13-13------------|------------16---15---|
|--------------------------|----------------------|
|--------------------------|----------------------|
|--------------------------|----------------------|
|--------------------------|----------------------|
|
|  Q       E  E  E  E E  E   E  E  E  E  E E  E E
|--8-------8--8--8--8----7-|----7--7--7--7----7---|
|--8-------8--8--8--8----6-|----6--6--6--6----6---|
|--8-------8--8--8--8----7-|----7--7--7--7----7---|
|--------------------------|----------------------|
|--------------------------|----------------------|
|--------------------------|----------------------|
|
|  E  E    E  E  E  E E  E   E  E  E  E  Q    E E
|-15------15-------16---15-|---15-------13---16---|
|--------------------------|---------15-----------|
|-12------12-------13---12-|---12-------10---13---|
|--------------------------|---------12-----------|
|--------------------------|----------------------|
|--------------------------|----------------------|


   Q.      E  E    E E  E    +E   E Q     Q   E  E
|------------11---15---13-|-(13)-15----------------|
|-13----------------------|------------------16-15-|
|-------------------------|------------------------|
|-------------------------|------------------------|
|-------------------------|------------------------|
|-------------------------|------------------------|
|
|  Q     Q    S S  E E  E    +E   E Q     Q   E  E
|-------------------------|------------------------|
|--8---------------8----6-|--(6)--8-----------8----|
|--8----------8----8----7-|--(7)--7-----------8--7-|
|-10---------10---10----9-|--(9)--9----------------|
|-------------------------|------------------------|
|-------------------------|------------------------|
|
|  E  E  E E  E    E E  E     E   E E  E  Q   E  E
|-15----15--------16---15-|------15------13--16----|
|-------------------------|-----------15-----------|
|-12----12--------13---12-|------12------10--13----|
|-------------------------|-----------12-----------|
|-------------------------|------------------------|
|-------------------------|------------------------|


   E  E  E  E  E  E E  E    +E   E E  E  Q   Q
|-------------11-15---13-|-(13)-15------11--10----|
|-13-13-13-13------------|-----------13-----------|
|------------------------|------------------------|
|------------------------|------------------------|
|------------------------|------------------------|
|------------------------|------------------------|
|
|  Q     E  E  E  E E  E    +E   E Q     Q   E E
|--8-----8--8--8--8----8-|--(8)--7----------------|
|--8-----8--8--8--8----9-|--(9)--6-------4---3----|
|--8-----8--8--8--8---10-|-(10)--7----------------|
|---------------------12-|-(12)-------------------|
|------------------------|------------------------|
|------------------------|------------------------|
|
|  E  E  E  E  E  E E  E     E   E E  E  Q   E E
|-15----15-------16---15-|------15------13--16----|
|------------------------|-----------15-----------|
|-12----12-------13---12-|------12------10--13----|
|------------------------|-----------12-----------|
|------------------------|------------------------|
|------------------------|------------------------|


   Q.      E  E    E E  E    +E   E Q     Q   E  E
|--8---------11---15---13-|-(13)-15----------------|
|-------------------------|------------------16-15-|
|-------------------------|------------------------|
|-------------------------|------------------------|
|-------------------------|------------------------|
|-------------------------|------------------------|
|
|  Q     Q    S S  E E  E    +E   E Q     Q   E  E
|--3---------------3----1-|--(1)--3-----------3----|
|--4----------4----4----3-|--(3)--3-----------4--3-|
|--5----------5----5----4-|--(4)--4----------------|
|-------------------------|------------------------|
|-------------------------|------------------------|
|-------------------------|------------------------|
|
|  E  E  E E  E    E E  E     E   E E  E  Q   E  E
|-15----15--------16---15-|------15------13--16----|
|-------------------------|-----------15-----------|
|-12----12--------13---12-|------12------10--13----|
|-------------------------|-----------12-----------|
|-------------------------|------------------------|
|-------------------------|------------------------|


   E  S S  E  E  E  E E  E   E  E  E  S S  S S E  E  E
|---------------11-15---13-|---13-13-15----------------|
|-13-13---13-13------------|--------------16--------18-|
|--------------------------|---------------------------|
|--------------------------|---------------------------|
|--------------------------|---------------------------|
|--------------------------|---------------------------|
|
|  Q       E  E  E  E E  E   E  E  E  E    E   E  E  E
|--8-------8--8--8--8----7-|----7--7--7----7------7----|
|--8-------8--8--8--8----6-|----6--6--6----6------6----|
|--8-------8--8--8--8----7-|----7--7--7----7------7----|
|--------------------------|---------------------------|
|--------------------------|---------------------------|
|--------------------------|---------------------------|
|
|  E  E    E  E  E  E E  E   E  E  E  E    Q      E  E
|-15------15-------16---15-|---15---------13-----16----|
|--------------------------|---------15----------------|
|-12------12-------13---12-|---12---------10-----13----|
|--------------------------|---------12----------------|
|--------------------------|---------------------------|
|--------------------------|---------------------------|


   E  E  E  E   Q     E  E    +E   E  E  E  E  E  E  E
|--------------------------|---------------------------|
|-20-20-18-16--16-------18-|-(18)-18-18-18-18-16-18-20-|
|--------------------------|---------------------------|
|--------------------------|---------------------------|
|--------------------------|---------------------------|
|--------------------------|---------------------------|
|
| Gtr III
|  W                           W
|--------------------------|---------------------------|
|--------------------------|---------------------------|
|--------------------------|---------------------------|
|--------------------------|---------------------------|
|--------------------------|---------------------------|
|--------------------------|---------------------------|
|
| Gtr V
|  Q     E  E  +E   E E  E    +E   E  E  E  E  E  E  E
|--6-----------------------|---------------------------|
|--------------------------|------18-------15-15-------|
|--3----20---------20---17-|-(17)-19-------16-16-------|
|----------19-(19)---------|------22-------15-15----15-|
|------------------18------|---------------------------|
|-------23-17-(17)------20-|-(20)-------15-------15----|


   Q   E  E   H            H          Q   E  E
|------------------------|---------------------|
|------------------------|---------------------|
|-20---------------------|---------------22-20-|
|-----22-----------------|---------------------|
|------------------------|---------------------|
|------------------------|---------------------|
|
|  Q   E  E   E   E E  E   E  E E  E  Q   E  E
|--------15--16--20---19-|---19----------------|
|--------15--15--18---18-|---18---15-15--15----|
|--------17--17--19---19-|---19---17-17--17----|
|----------------22------|--------18-18--18----|
|------------------------|---------------------|
|------------------------|---------------------|
|
|  Q   E  E  +E   E E  E   E  E E  E  Q   E  E
|------------------------|---------------------|
|-----16---------16------|---------------------|
|-15-----14-(14)---------|---------------------|
|-----13---------13---12-|---12---12-12--12----|
|---------------------14-|---14---14-15--14----|
|-18-----17-(17)------13-|---13---13-13--13----|


   E  E  E  E   Q     E  E    +E   E  E  E  E  E  E  E
|--------------------------|---------------------------|
|-20-20-18-16--16-------18-|-(18)-18-18-18-18-16-18-20-|
|--------------------------|---------------------------|
|--------------------------|---------------------------|
|--------------------------|---------------------------|
|--------------------------|---------------------------|
|
|  W                           W
|--------------------------|---------------------------|
|--------------------------|---------------------------|
|--------------------------|---------------------------|
|--------------------------|---------------------------|
|--------------------------|---------------------------|
|--------------------------|---------------------------|
|
|  Q     E  E  +E   E E  E    +E   E  E  E  E  E  E  E
|--------------------------|------13-------------------|
|-------16---------16------|------15-------15-15-------|
|-15-------14-(14)------17-|-(17)-17-------16-16-------|
|-------13---------13------|---------------15-15----15-|
|-13--------------------15-|-(15)----------------------|
|----------17-(17)---------|------------15-------15----|


                             Gtr II
   Q   E  E   H              H           E  E  E  E
|--------------------------|---------------11-11-----|
|--------------------------|---------------13-13-13--|
|-20-----------------------|---------------12-12-12--|
|-----22-------------------|---------------------13--|
|--------------------------|-------------------------|
|--------------------------|-------------------------|
|
|  Q   E  E   E   E E  S S   E  E  E  E  E  E  E  E
|----------------16---15---|---------------16-15-13--|
|--------16------18---15---|------------18-----------|
|-----17-17------19---16---|------16-19----13-12-10--|
|--------------------------|---17-------15-----------|
|-----15-15----------------|---------17--------------|
|--------------------------|---15-19-----------------|
|
|  Q   E  E  +E   E E  E     E  E  E  E  Q     E  E
|--------------------------|-------------------------|
|-----16---------16--------|-------------------------|
|-15-----14-(14)-----------|-------------------------|
|-----13---------13---12---|---12----12-12----12-----|
|---------------------14---|---14----14-15----14-----|
|-18-----17-(17)------13---|---13----13-13----13-----|


  Gtr I
   E  E  E  E  E  E  Q       W
|-------------------------|-------------------------|
|----20-18-16-18-20-------|-------------------------|
|-------------------------|-------------------------|
|-------------------------|-------------------------|
|-------------------------|-------------------------|
|-------------------------|-------------------------|
|
| Gtr II
|  Q     Q     E  E  E  E    E  E  E  E  E  E  E  E
|-11-------------11-------|-------------------------|
|-13----13-------13-15-13-|-15-15-15-13----16-15-13-|
|-12----12-------12-12----|-13-13-13-13-13-13-13-13-|
|-13----13----------------|-15-15-15-15-15-15-15-15-|
|-------------------------|-------------------------|
|-------------------------|-------------------------|
|
|  E  E  E  E  E  E  E  E    E  E  E  E  Q     E  E
|-11-----8--------1-----7-|-----7-----1--1-----7----|
|--8-----8--------------6-|-----6--------------6----|
|-------------------------|-------------------------|
|-------------------------|-------------------------|
|-------------------------|-------------------------|
|--8-----8--------1-----3-|-----3-----1--1-----3----|


   E  E  E  E  E  E  Q       W
|-------------------------|-----------------------------|
|----20-18-16-18-20-------|-----------------------------|
|-------------------------|-----------------------------|
|-------------------------|-----------------------------|
|-------------------------|-----------------------------|
|-------------------------|-----------------------------|
|
|  Q     Q     E  E  E  E    E  E    E  E  E  E  E    E
|-11-------------11-------|------------------11---------|
|-------13----------15-13-|---------------------15---13-|
|-12----12-------12-12-12-|-12-12---12-12----12-12---12-|
|-13----13-------13-13-13-|-12-12---12-12----13-13---13-|
|-------------------------|-14-14---14-14---------------|
|-------------------------|-----------------------------|
|
|  E  E  E  E  E  E  E  E    E  S S  E  E  E  E  S S  E
|-20----20-------13----22-|----22---22----22-22-22---22-|
|----------------------20-|----20---20----20-20------20-|
|-----------------------0-|----------0----24------------|
|-------------------------|-----------------------------|
|-------------------------|---------22------------------|
|-20----20-------13-------|-----------------------------|


   E  E  E  E  E  E  Q       W
|-------------------------|-------------------------|
|----20-18-16-18-20-------|-------------------------|
|-------------------------|-------------------------|
|-------------------------|-------------------------|
|-------------------------|-------------------------|
|-------------------------|-------------------------|
|
|  Q     Q     E  E  E  E    E  E  E  E  E  E  E  E
|-11-------------11-------|-------------------------|
|-13----13-------13-15-13-|-15-15-15-13----16-15-13-|
|-12----12-------12-12----|-13-13-13-13-13-13-13-13-|
|-13----13----------------|-15-15-15-15-15-15-15-15-|
|-------------------------|-------------------------|
|-------------------------|-------------------------|
|
|  E  E  E  E  E  E  E  E    E  E  E  E  Q     E  E
|-11-----8--------1-----7-|-----7-----1--1-----7----|
|--8-----8--------------6-|-----6--------------6----|
|-------------------------|-------------------------|
|-------------------------|-------------------------|
|-------------------------|-------------------------|
|--8-----8--------1-----3-|-----3-----1--1-----3----|


   E  E  +S  S  E  Q     Q       H             Q     E    E
|-----------------------------|---------------------15---15--|
|----18-(18)---16-------------|------------------------------|
|--------------17-17----------|------------------------------|
|-----------------------------|------------------------------|
|-----------------------------|------------------------------|
|-----------------------------|------------------------------|
|
|  Q      Q        E  E  E  E    E  E    E  E  H
|-11-----------------11-------|------------------------------|
|--------13-------------15-13-|------------------------------|
|-12-----12----------12-12-12-|-12-12---12-12----------------|
|-13-----13----------13-13-13-|-12-12---12-12----------------|
|-----------------------------|-14-14---14-14----------------|
|-----------------------------|------------------------------|
|
|  E  E   E     E  E  E  E  E    E  S S  E  E  E  E  S S  E
|-20-----20----------13----22-|----22---22----22-22-22---22--|
|--------------------------20-|----20---20----20-20------20--|
|---------------------------0-|----------0----24-------------|
|-----------------------------|------------------------------|
|-----------------------------|---------22-------------------|
|-20-----20----------13-------|------------------------------|


   E  E  E  E   Q     E  E    +E   E  E  E  E  E  E  E
|-15-15-13-11--11-------13-|-(13)-13-13-13-13-11-13-15-|
|--------------------------|---------------------------|
|--------------------------|---------------------------|
|--------------------------|---------------------------|
|--------------------------|---------------------------|
|--------------------------|---------------------------|
|
| Gtr III
|  W                           W
|--------------------------|---------------------------|
|--------------------------|---------------------------|
|--------------------------|---------------------------|
|--------------------------|---------------------------|
|--------------------------|---------------------------|
|--------------------------|---------------------------|
|
|  Q     E  E  +E   E E  E    +E   E  E  E  E  E  E  E
|--------------------------|---------------------------|
|--------------------------|------18-------15-15-------|
|-------20---------20---17-|-(17)-19-------16-16-------|
|-20-------19-(19)---------|------22-------15-15----15-|
|-------18---------18------|---------------------------|
|-18-------17-(17)------20-|-(20)-------15-------15----|


   Q   E  E   H            H          Q   E  E
|------------------------|---------------------|
|-16---------------------|---------------18-16-|
|-----17-----------------|---------------------|
|------------------------|---------------------|
|------------------------|---------------------|
|------------------------|---------------------|
|
|  Q   E  E   E   E E  E   E  E E  E  Q   E  E
|--------15--16--20---19-|---19----------------|
|--------15--15--18---18-|---18---15-15--15----|
|--------17--17--19---19-|---19---17-17--17----|
|----------------22------|--------18-18--18----|
|------------------------|---------------------|
|------------------------|---------------------|
|
|  Q   E  E  +E   E E  E   E  E E  E  Q   E  E
|------------------------|---------------------|
|-----16---------16------|---------------------|
|-15-----14-(14)---------|---------------------|
|-----13---------13---12-|---12---12-12--12----|
|---------------------14-|---14---14-15--14----|
|-18-----17-(17)------13-|---13---13-13--13----|


   E  E  E  E   Q     E  E    +E   E  E  E  E  E  E  E
|-15-15-13-11--11-------13-|-(13)-13-13-13-13-11-13-15-|
|--------------------------|---------------------------|
|--------------------------|---------------------------|
|--------------------------|---------------------------|
|--------------------------|---------------------------|
|--------------------------|---------------------------|
|
|  E  E  Q      E   E E  E     Q      E  E  Q     E  E
|-20-----------------------|---------------------16----|
|-----------------------15-|---------------18-------18-|
|-17---------------17---16-|------------19-------13----|
|------------------18---15-|---------------15-------15-|
|------------------20------|------------17-------------|
|--------------------------|---------------------------|
|
|  Q     E  E  +E   E E  E    +E   E  E  E  E  E  E  E
|--------------------------|------13-------------------|
|-------16---------16------|------15-------15-15-------|
|-15-------14-(14)------17-|-(17)-17-------16-16-------|
|-------13---------13------|---------------15-15----15-|
|-13--------------------15-|-(15)----------------------|
|----------17-(17)---------|------------15-------15----|


                        Gtr II
   Q   E  E  H          H          E  E  E E
|---------------------|--------------11-10-8-|
|-16------------------|--------------13------|
|-----17--------------|--------------12------|
|---------------------|--------------13------|
|---------------------|----------------------|
|---------------------|----------------------|
|
|  Q   E  E  E E  E E   E  E  E E  E  E  E E
|---------------------|----------------------|
|---------------------|-------8----8--9--8---|
|-----------12---12---|---10-11---10---------|
|--------13-16--------|---12-----------------|
|--------15-----------|----------------------|
|---------------------|----------------------|
|
|  W                    W
|---------------------|----------------------|
|---------------------|----------------------|
|---------------------|----------------------|
|---------------------|----------------------|
|---------------------|----------------------|
|---------------------|----------------------|


  Gtr I
   E  E  E  E  E  E  Q       W
|----15-13-11-13-15-------|-------------------------|
|-------------------------|-------------------------|
|-------------------------|-------------------------|
|-------------------------|-------------------------|
|-------------------------|-------------------------|
|-------------------------|-------------------------|
|
| Gtr II
|  Q     Q     E  E  E  E    E  E  E  E  E  E  E  E
|-11-------------11-------|-------------------------|
|-13----13-------13-15-13-|-15-15-15-13----16-15-13-|
|-12----12-------12-12----|-13-13-13-13-13-13-13-13-|
|-13----13----------------|-15-15-15-15-15-15-15-15-|
|-------------------------|-------------------------|
|-------------------------|-------------------------|
|
|  E  E  E  E  E  E  E  E    E  E  E  E  Q     E  E
|-11-----8--------1-----7-|-----7-----1--1-----7----|
|--8-----8--------------6-|-----6--------------6----|
|-------------------------|-------------------------|
|-------------------------|-------------------------|
|-------------------------|-------------------------|
|--8-----8--------1-----3-|-----3-----1--1-----3----|


   E  E  E  E  E  E  Q       W
|----15-13-11-13-15-------|----------------------------|
|-------------------------|----------------------------|
|-------------------------|----------------------------|
|-------------------------|----------------------------|
|-------------------------|----------------------------|
|-------------------------|----------------------------|
|
|  Q     Q     E  E  E  E    E    E  E  E  E  E  E  E
|-11-------------11-------|------------------11--------|
|-------13----------15-13-|---------------------15-13--|
|-12----12-------12-12-12-|-12---12-12-12----12-12-12--|
|-13----13-------13-13-13-|-12---12-12-12----13-13-13--|
|-------------------------|-14---14-14-14--------------|
|-------------------------|----------------------------|
|
|  E  E  E  E  E  E  E  E    S S  E  E  E  E  E  E  E
|-20----20-------13----22-|-22---22-22-22-20----20-----|
|----------------------20-|-20---20-20-20-18----18-----|
|-----------------------0-|------24--0-----------------|
|-------------------------|----------------------------|
|-------------------------|---------22-----------------|
|-20----20-------13-------|----------------------------|


   H         E  E  Q       W
|-----------13-15-------|-------------------------|
|-----------------------|-------------------------|
|-----------------------|-------------------------|
|-----------------------|-------------------------|
|-----------------------|-------------------------|
|-----------------------|-------------------------|
|
|  Q    Q    E  E  E  E    E  E  E  E  E  E  E  E
|-11-----------11-------|-------------------------|
|-13---13------13-15-13-|-15-15-15-13----16-15-13-|
|-12---12------12-12----|-13-13-13-13-13-13-13-13-|
|-13---13---------------|-15-15-15-15-15-15-15-15-|
|-----------------------|-------------------------|
|-----------------------|-------------------------|
|
|  E E  E E  E  E  E  E    E  E  E  E  Q     E  E
|-11----8-------1-----7-|-----7-----1--1-----7----|
|--8----8-------------6-|-----6--------------6----|
|-----------------------|-------------------------|
|-----------------------|-------------------------|
|-----------------------|-------------------------|
|--8----8-------1-----3-|-----3-----1--1-----3----|


                             Gtrs I, III
   Q    E  E  +E   E  Q       H             Q    Q
|---------13-(13)-11-------|---------------11---10---|
|-----------------13-------|-------------------------|
|--------------------------|-------------------------|
|--------------------------|-------------------------|
|--------------------------|-------------------------|
|--------------------------|-------------------------|
|
|  Q    Q      E   E  E  E    E    E  E  E  Q    Q
|-11--------------11-------|---------------11--------|
|------13------------15-13-|--------------------15---|
|-12---12---------12-12-12-|-12---12-12-12-12---12---|
|-13---13---------13-13-13-|-12---12-12-12-13---13---|
|--------------------------|-14---14-14-14-----------|
|--------------------------|-------------------------|
|
|  E E  E  E   E   E  E  E    S S  E  E  E  E E  Q
|-20---20---------13----22-|-22---22-22-22-20--------|
|-----------------------20-|-20---20-20-20-18--------|
|------------------------0-|------24--0--------------|
|--------------------------|-------------------------|
|--------------------------|---------22--------------|
|-20---20---------13-------|-------------------------|


  Gtr I
   Q.      E  E    E E  E    +E   E Q     Q   E  E
|--8---------11---15---13-|-(13)-15----------------|
|-------------------------|------------------16-15-|
|-------------------------|------------------------|
|-------------------------|------------------------|
|-------------------------|------------------------|
|-------------------------|------------------------|
|
|  Q     Q    S S  E E  E    +E   E Q     Q   E  E
|-----------------------1-|--(1)--3-----------3----|
|-----------------------3-|--(3)--3-----------4--3-|
|-12--------------12----4-|--(4)--4----------------|
|-13---------13---13------|------------------------|
|-15---------15---15------|------------------------|
|-------------------------|------------------------|
|
| Gtr III
|  E  E  E E  E    E E  E     E   E E  E  Q   E  E
|-15----15--------16---15-|------15------13--16----|
|-------------------------|-----------15-----------|
|-12----12--------13---12-|------12------10--13----|
|-------------------------|-----------12-----------|
|-------------------------|------------------------|
|-------------------------|------------------------|


   E  S S  E  E  E  E E  E   E  E  E  E  Q    Q
|---------------11-15---13-|---13-13-15-----------|
|-13-13---13-13------------|------------16---15---|
|--------------------------|----------------------|
|--------------------------|----------------------|
|--------------------------|----------------------|
|--------------------------|----------------------|
|
|  Q       E  E  E  E E  E   E  E  E  E  E E  E E
|--8-------8--8--8--8----7-|----7--7--7--7----7---|
|--8-------8--8--8--8----6-|----6--6--6--6----6---|
|--8-------8--8--8--8----7-|----7--7--7--7----7---|
|--------------------------|----------------------|
|--------------------------|----------------------|
|--------------------------|----------------------|
|
|  E  E    E  E  E  E E  E   E  E  E  E  Q    E E
|-15------15-------16---15-|---15-------13---16---|
|--------------------------|---------15-----------|
|-12------12-------13---12-|---12-------10---13---|
|--------------------------|---------12-----------|
|--------------------------|----------------------|
|--------------------------|----------------------|


   Q.      E  E    E E  E    +E   E Q     Q   E  E
|------------11---15---13-|-(13)-15----------------|
|-13----------------------|------------------16-15-|
|-------------------------|------------------------|
|-------------------------|------------------------|
|-------------------------|------------------------|
|-------------------------|------------------------|
|
|  Q     Q    S S  E E  E    +E   E Q     Q   E  E
|-------------------------|------------------------|
|--8---------------8----6-|--(6)--8-----------8----|
|--8----------8----8----7-|--(7)--7-----------8--7-|
|-10---------10---10----9-|--(9)--9----------------|
|-------------------------|------------------------|
|-------------------------|------------------------|
|
|  E  E  E E  E    E E  E     E   E E  E  Q   E  E
|-15----15--------16---15-|------15------13--16----|
|-------------------------|-----------15-----------|
|-12----12--------13---12-|------12------10--13----|
|-------------------------|-----------12-----------|
|-------------------------|------------------------|
|-------------------------|------------------------|


   E  S S  E  E  E  E E  E   E  E  E  E  Q      E    E
|---------------11-15---13-|---13-13-15-------------------|
|-13-13---13-13------------|------------16-----15---------|
|--------------------------|------------------------------|
|--------------------------|------------------------------|
|--------------------------|------------------------------|
|--------------------------|------------------------------|
|
|  Q       E  E  E  E E  E   E  E  E  E  H
|--8-------8--8--8--8----7-|----7--7--7-------------------|
|--8-------8--8--8--8----6-|----6--6--6-------------------|
|--8-------8--8--8--8----7-|----7--7--7-------------------|
|--------------------------|------------------------------|
|--------------------------|------------------------------|
|--------------------------|------------------------------|
|
|  E  E    E  E  E  E E  E   E  E  E  E  E S S +S  E   S
|-15------15-------16---15-|---15--------1---1-(1)-1------|
|--------------------------|---------15--3---3-(3)-3------|
|-12------12-------13---12-|---12--------5---5-(5)-5------|
|--------------------------|---------12-------------------|
|--------------------------|------------------------------|
|--------------------------|------------------------------|


    E   E     +E  E      H
|----------------------------------------|
|--15--13----(13)------------------------|
|----------------------------------------|
|----------------------------------------|
|----------------------------------------|
|----------------------------------------|
|
| Gtr III
|   E   E      Q         H
|---5------------------------------------|
|---8------------------------------------|
|---8------------------------------------|
|----------------------------------------|
|----------------------------------------|
|----------------------------------------|
|
| Gtr V
|  +E.     S   E  S  S  +S   E S S  E  S
|----------------------------------------|
|-------------------20-(20)-21-----------|
|-(17)----20-----------------------22-24-|
|-------------------17-(17)-18-----------|
|---------18-----------------------20-22-|
|-(20)-----------------------------------|


    W                                           W
|-------------------------------------------|------------------------------------|
|-------------------------------------------|------------------------------------|
|-------------------------------------------|------------------------------------|
|-------------------------------------------|------------------------------------|
|-------------------------------------------|------------------------------------|
|-------------------------------------------|------------------------------------|
|
|   W                                           W
|-------------------------------------------|------------------------------------|
|-------------------------------------------|------------------------------------|
|-------------------------------------------|------------------------------------|
|-------------------------------------------|------------------------------------|
|-------------------------------------------|------------------------------------|
|-------------------------------------------|------------------------------------|
|
|  +S  E  S  +S   E  S  +E.  S  +S   S S  S    +S   E  S  +S  E  S  +S   Q   E.
|-------------------------------------------|------------------------------------|
|-------------------21-(21)---------21------|------20-----------------------12---|
|-(24)-----------22---------22-(22)---------|---------20-(20)---17-(17)-13---0---|
|--------24-(24)----18-(18)---------18------|------17------------------------9---|
|-(22)-----------20-20-(20)-20-(20)-20---18-|-(18)----18-(18)---15-(15)-11-------|
|--------22-(22)------------22-(22)---------|---------20-(20)---16-(16)-13-------|


  Gtr II
  W
|--------------------------------------|
|--------------------------------------|
|--------------------------------------|
|--------------------------------------|
|--------------------------------------|
|--------------------------------------|
|
| Gtr V
| S  E  S  +S   E  S  +S   E S +S  E S
|---15-17-(17)-19-20-(20)-22-------0-3-|
|----------------------------4-(4)-----|
|----------------------------7-(7)-----|
|--------------------------------------|
|--------------------------------------|
|---15-17-(17)-19-20-(20)--------------|


   Q         E     E   Q         Q      Q      E    E      Q.          E
|-------------------------------------|-----------------------------------|
|-------------------------------------|-----------------------------------|
|-------------------------------------|-----------------------------------|
|------------5-----5---5--------------|--------5----5------5--------------|
|-------------------------------------|-----------------------------------|
|-------------------------------------|-----------------------------------|
|
| +S  E  S  +S   E   S S  E  S  +E. S   S  E S S  E    S  +S  S  E  E  E
|-(3)---23-(23)-20-------16-15-(15)-0-|-0-22-----20---19-(19)------16-19--|
|-------------------------------------|-----------------------------------|
|-------------------------------------|-----------------------------------|
|-------------------------------------|-----------------------------------|
|-------------------------------------|-----------------------------------|
|-------23-(23)-20-------16-15-(15)---|---22-----20---19-(19)---16----19--|


    Q        E E  Q    Q       Q    E  E Q       Q
|---------------------------|---------------------------|
|---------------------------|---------------------------|
|---------------------------|---------------------------|
|------------5-5--5---------|-------5--5-5--------------|
|---------------------------|---------------------------|
|---------------------------|---------------------------|
|
|  +S  S  E  E E  E E  E  E    E E  E  E S  E S +S  E S
|-(19)---20-18---16---15-14-|-13---12-11---10-9-(9)---8-|
|---------------------------|---------------------------|
|---------------------------|---------------------------|
|---------------------------|---------------------------|
|---------------------------|---------------------------|
|-(19)---20-18---16---15-14-|-13---12-11---10-9-(9)---8-|


   Q     E    E      Q.             E
|--------3----3------3--------------------|
|-----------------------------------------|
|-----------------------------------------|
|-----------------------------------------|
|-----------------------------------------|
|-----------------------------------------|
|
| +E. S +S  E    S  +S  E  S  +S  E    S
|-(8)-7-(7)-8---11-(11)-8-10-(10)-----10--|
|-----------------------------------------|
|-----------------------------------------|
|-----------------------------------------|
|-----------------------------------------|
|-(8)-7-(7)-8---11-(11)-8-10-(10)-----10--|


    Q          E    E      Q.              E
|--------------3----3------3-------------------|
|----------------------------------------------|
|----------------------------------------------|
|----------------------------------------------|
|----------------------------------------------|
|----------------------------------------------|
|
|  +S   E  S  +S  E    S  +S  E  S  +S   E   S
|-(10)-11-11-(11)-----13-(13)---13-(13)-14-----|
|----------------------------------------------|
|----------------------------------------------|
|----------------------------------------------|
|----------------------------------------------|
|-(10)-11-11-(11)-----13-(13)---13-(13)-14-----|


  Q      E    E      Q.              E     W
|--------3----3------3-------------------|-------------------------------------------|
|----------------------------------------|-------------------------------------------|
|----------------------------------------|-------------------------------------------|
|----------------------------------------|-------------------------------------------|
|----------------------------------------|-------------------------------------------|
|----------------------------------------|-------------------------------------------|
|
| S  E S S  E    S  +S  E  S  +S   E   S   E S  S  +S   E  S  +S   E  S  +S   E  S
|---15-----11---16-(16)---15-(15)-15-----|-------------------------------------------|
|----------------------------------------|-------------------------------------------|
|----------------------------------------|----------------16-(16)-17-19-(19)-20-22---|
|----------------------------------------|-----17-(17)-18----------------------------|
|----------------------------------------|---------------------------17-(17)-18-20---|
|---15-----11---16-(16)---15-(15)-15-----|-----15-(15)-16-19-(19)-20-----------------|


  Gtr V
   +S   E S Q  H      W          W          W
|-------------------|----------|----------|------|
|-------------------|----------|----------|------|
|-(22)-24-----------|----------|----------|------|
|-------------------|----------|----------|------|
|-(20)-22-----------|----------|----------|------|
|-------------------|----------|----------|------|


  Gtr I
   W                      W
|-----------------------|------------------------|
|-----------------------|------------------------|
|-----------------------|------------------------|
|-----------------------|------------------------|
|-----------------------|------------------------|
|-----------------------|------------------------|
|
| Gtr III
|  E E  E  E  E  E E  E   E  E E  E  Q    E  S S
|-15---15-13-16---------|------------------------|
|---------------18---20-|-----------18------18---|
|-----------------------|---19---19------19------|
|-----------------------|------------------------|
|-----------------------|------------------------|
|-----------------------|------------------------|
|
| Gtr IV
|  E E  E  E  E  E E  E   E  E E  E  E E  E  E
|-----------------------|------------------------|
|--8----8--6--9--6----8-|------------6-------6---|
|--8----8--7--7--7----7-|----7----7--7----7------|
|-10---10--6--6--6----9-|----9----9--6----6--6---|
|-----------------------|---10---10-------8------|
|-----------------------|------------------------|


   W                     H       E  E  E  E
|----------------------|-----------15-16-15--|
|----------------------|---------------------|
|----------------------|---------------------|
|----------------------|---------------------|
|----------------------|---------------------|
|----------------------|---------------------|
|
|  E E  E E E  E  E  E   E  E Q  E  E  Q
|----------------------|---------------------|
|-16----------18-18----|-----------18--------|
|------17-----------19-|-----------19--------|
|----------------------|---21------22--------|
|----------------------|---------------------|
|----------------------|---19----------------|
|
|  E E  E E E  E  E  E   E  E Q  E  E  Q
|----------------------|---------------------|
|--4-----------6--6----|------------9--------|
|--5----5------7--7--7-|----7------10--------|
|--5----5------6--6--9-|----9------12--------|
|-------6------------8-|----8----------------|
|----------------------|---------------------|


  E      E   E      S  S   E   E      S  S  E
|-------15--13-----11-----15--16-----15----13----|
|------------------------------------------------|
|------------------------------------------------|
|------------------------------------------------|
|------------------------------------------------|
|------------------------------------------------|
|
| W
|------------------------------------------------|
|------------------------------------------------|
|------------------------------------------------|
|------------------------------------------------|
|------------------------------------------------|
|------------------------------------------------|
|
| Gtr V
| S  E.     +S   E     S  +E.     S  +S  E     S
|------------------------------------------------|
|------------------------------------------------|
|---------------20---------------20-(20)------17-|
|---20-----(20)-------19-(19)--------------------|
|---------------18---------------18-(18)---------|
|---18-----(18)-------17-(17)-----------------20-|


    E   E      E     E      E      E      E      E        Q        E      E      H
|13-----13----13-----13-----11-----13-----15----|------------------------------------------------|
|-----------------------------------------------|--16--------------------------------------------|
|-----------------------------------------------|-----------17-----------------------------------|
|-----------------------------------------------|------------------------------------------------|
|-----------------------------------------------|------------------------------------------------|
|-----------------------------------------------|------------------------------------------------|
|
|   W                                                     Q        E      E      E   E      E E
|-----------------------------------------------|-----------------------------20-----------19----|
|-----------------------------------------------|------------------20-----21--18-----------18----|
|-----------------------------------------------|------------------19-----19--19-----------19----|
|-----------------------------------------------|------------------22-----22--22-----------------|
|-----------------------------------------------|------------------------------------------------|
|-----------------------------------------------|------------------------------------------------|
|
|  +E.     S  +S  E     S  +S   E     S  +S   E     S    +S   E.  +S   E     S  +E.    S  +S  E S
|-----------------------------------------------------|---------------------------
|---------18-(18)--------------15----15-(15)----------|---------------16----------
|-(17)----19-(19)--------------16----16-(16)----------|------15--(15)-------14-
|---------22-(22)--------------15----15-(15)-------15-|-(15)----------13----------
|-----------------------------------------------------|---------------------------
|-(20)-----------------15-(15)---------------15-------|------18--(18)-------17-

---------------------|
-----16-(16)---------|
(14)--------------------|
-----13-(13)------12-|
------------------14-|
(17)-----------------13-|


    H                         Q     E    E      E     E  E      E      Q       E     E
|--------------------------------------------|------------------------15------15----13----|
|----------------------------------18---20---|-20----20-18-----16-------------------------|
|--------------------------------------------|--------------------------------------------|
|--------------------------------------------|--------------------------------------------|
|--------------------------------------------|--------------------------------------------|
|--------------------------------------------|--------------------------------------------|
|
|   E     E      E     E      Q     E    E      W
|--------19----------------------------------|--------------------------------------------|
|--------18-----------15-----15----15--------|--------------------------------------------|
|--------19-----------17-----17----17--------|--------------------------------------------|
|---------------------18-----18----18--------|--------------------------------------------|
|--------------------------------------------|--------------------------------------------|
|--------------------------------------------|--------------------------------------------|
|
|  +S  E     S  +S  E     S  +S  Q    E    S    S E.    +S   E     S  +E.  S  +S  E     S
|--------------------------------------------|----6-----(6)-------------------------------|
|--------------------------------3----3------|--------------------------------------------|
|--------------------------------5----4------|----3-----(3)-20------------20-(20)------17-|
|-(12)------12-(12)------12-(12)-6----3------|--------------------19-(19)-----------------|
|-(14)------14-(14)------14-(14)-------------|----------------------------18-(18)---------|
|-(13)------13-(13)------13-(13)-------------|--------------23----17-(17)--------------20-|


    E   E      E     E      E      E      E      E
|------13-----13----11-----13-----11-----13-----15----|
|-----------------------------------------------------|
|-----------------------------------------------------|
|-----------------------------------------------------|
|-----------------------------------------------------|
|-----------------------------------------------------|
|
|   W
|-----------------------------------------------------|
|-----------------------------------------------------|
|-----------------------------------------------------|
|-----------------------------------------------------|
|-----------------------------------------------------|
|-----------------------------------------------------|
|
|  +E.     S  +S  E     S  +S   E     S  +S   E     S
|-----------------------------------------------------|
|---------18-(18)--------------15----15-(15)----------|
|-(17)----19-(19)--------------16----16-(16)----------|
|---------22-(22)--------------15----15-(15)-------15-|
|-----------------------------------------------------|
|-(20)-----------------15-(15)---------------15-------|


   Q    E E H           W                          Q    Q    +H
|---------------------|-------------------------|------15---(15)-----------|
|-16------------------|-------------------------|--------------------------|
|------17-------------|-------------------------|--------------------------|
|---------------------|-------------------------|--------------------------|
|---------------------|-------------------------|--------------------------|
|---------------------|-------------------------|--------------------------|
|
| Gtr II
|  W                    H            E  E  E  E    Q    Q     E   E  E  E
|---------------------|----------------11-11----|-11-------------11--------|
|---------------------|----------------13-13-13-|-13---13--------13-15-13--|
|---------------------|----------------12-12-12-|-12---12--------12-12-----|
|---------------------|----------------------13-|-13---13------------------|
|---------------------|-------------------------|--------------------------|
|---------------------|-------------------------|--------------------------|
|
| Gtr III
|  E E  E E E  E E  E   E  E E  S S  Q     E  E    E E  E E   E   E  E  E
|-15---15-----16---15-|---15--------------------|-15---15--------16----15--|
|-16---16-----18---15-|---15--------15----15----|-16---16--------18----15--|
|-17---17-----19---16-|---16--------13----16----|-17---17--------19----16--|
|---------------------|--------15---15----15----|--------------------------|
|---------------------|-------------------------|--------------------------|
|---------------------|-------------------------|--------------------------|


   E  E  E  E    E  E  E  E    Q    Q    +E   E  E  E
|----13-11-13------13----11-|------15---(15)-13-11-13-|
|---------------------13----|-------------------------|
|---------------------------|-------------------------|
|---------------------------|-------------------------|
|---------------------------|-------------------------|
|---------------------------|-------------------------|
|
|  E  E  E  E    E  E  E  E    Q    Q     E   E  E  E
|---------------------------|-11-------------11-------|
|-15-15-15-13------16-15-13-|------13-----------15-13-|
|-13-13-13-13---13-13-13-13-|-12---12--------12-12-12-|
|-15-15-15-15---15-15-15-15-|-13---13--------13-13-13-|
|---------------------------|-------------------------|
|---------------------------|-------------------------|
|
|  E  E  E  S S  Q     E  E    E E  E E   E   E  E  E
|----15---------------------|-15---15--------16----15-|
|----15---------15----15----|-16---16--------18----15-|
|----16---------13----16----|-17---17--------19----16-|
|----------15---15----15----|-------------------------|
|---------------------------|-------------------------|
|---------------------------|-------------------------|


   E  E  E  E    +E   E  Q
|----13----11---(11)----------|
|-------13--------------------|
|-----------------------------|
|-----------------------------|
|-----------------------------|
|-----------------------------|
|
|  E  E  E  E     E   E  E  E
|--------------------11-------|
|-----------------------15-13-|
|-12-12-12-12--------12-12-12-|
|-12-12-12-12--------13-13-13-|
|-14-14-14-14-----------------|
|-----------------------------|
|
|  E  E  E  S S   Q      E  E
|----15-----------------------|
|----15----------15-----15----|
|----16----------13-----16----|
|----------15----15-----15----|
|-----------------------------|
|-----------------------------|


   Q    Q    +E   E  E  E
|------15---(15)-13-11-13-|
|-------------------------|
|-------------------------|
|-------------------------|
|-------------------------|
|-------------------------|
|
|  Q    Q     E   E  E  E
|-11-------------11-------|
|-13---13--------13-15-13-|
|-12---12--------12-12----|
|-13---13-----------------|
|-------------------------|
|-------------------------|
|
|  E E  E E   E   E  E  E
|-15---15--------16----15-|
|-16---16--------18----15-|
|-17---17--------19----16-|
|-------------------------|
|-------------------------|
|-------------------------|


   E  E  E  E    +E   E  Q       H        E  E  E  E
|----13--------------11-------|-------------15----13--|
|-------13-13---(13)----------|-----------------------|
|-----------------------------|-----------------------|
|-----------------------------|-----------------------|
|-----------------------------|-----------------------|
|-----------------------------|-----------------------|
|
|  E  E  E  E     E   E  E  E    Q    Q   E  E  E  E
|-----------------------------|-11----------11--------|
|-15-15-15-13--------16-15-13-|------13--------15-13--|
|-13-13-13-13----13--13-13-13-|-12---12-----12-12-12--|
|-15-15-15-15----15--15-15-15-|-13---13-----13-13-13--|
|-----------------------------|-----------------------|
|-----------------------------|-----------------------|
|
|  E  E  E  S S   Q      E  E    E E  E E E  E  E  E
|----15-----------------------|-15---15-----16----15--|
|----15----------15-----15----|-16---16-----18----15--|
|----16----------13-----16----|-17---17-----19----16--|
|----------15----15-----15----|-----------------------|
|-----------------------------|-----------------------|
|-----------------------------|-----------------------|


   +E   S S  E  E    Q   Q     Q.      E  E    E E  E    +E   E Q     Q   E  E
|-(13)-15-----------11--10--|--8---------11---15---13-|-(13)-15----------------|
|--------------13-----------|-------------------------|------------------16-15-|
|---------------------------|-------------------------|------------------------|
|---------------------------|-------------------------|------------------------|
|---------------------------|-------------------------|------------------------|
|---------------------------|-------------------------|------------------------|
|
|   E   E    E  E    Q   Q     Q     Q    S S  E E  E    +E   E Q     Q   E  E
|-------------------11------|-----------------------1-|--(1)--3-----------3----|
|-----------------------15--|-----------------------3-|--(3)--3-----------4--3-|
|--12--12---12-12---12--12--|-12--------------12----4-|--(4)--4----------------|
|--12--12---12-12---13--13--|-13---------13---13------|------------------------|
|--14--14---14-14-----------|-15---------15---15------|------------------------|
|---------------------------|-------------------------|------------------------|
|
|   E   E    E  S S  Q   Q     E  E  E E  E    E E  E     E   E E  E  Q   E  E
|------15-------------------|-15----15--------16---15-|------15------13--16----|
|------15-----------16--15--|-------------------------|-----------15-----------|
|------16------17-----------|-12----12--------13---12-|------12------10--13----|
|--------------15---13--12--|-------------------------|-----------12-----------|
|--------------15-----------|-------------------------|------------------------|
|---------------------------|-------------------------|------------------------|


   E  S S  E  E  E  E E  E   E  E  E  E  Q    Q      Q.      E  E    E E  E
|---------------11-15---13-|---13-13-15-----------|------------11---15---13-|
|-13-13---13-13------------|------------16---15---|-13----------------------|
|--------------------------|----------------------|-------------------------|
|--------------------------|----------------------|-------------------------|
|--------------------------|----------------------|-------------------------|
|--------------------------|----------------------|-------------------------|
|
|  Q       E  E  E  E E  E   E  E  E  E  E E  E E    Q     Q    S S  E E  E
|--8-------8--8--8--8----7-|----7--7--7--7----7---|-------------------------|
|--8-------8--8--8--8----6-|----6--6--6--6----6---|--8---------------8----6-|
|--8-------8--8--8--8----7-|----7--7--7--7----7---|--8----------8----8----7-|
|--------------------------|----------------------|-10---------10---10----9-|
|--------------------------|----------------------|-------------------------|
|--------------------------|----------------------|-------------------------|
|
|  E  E    E  E  E  E E  E   E  E  E  E  Q    E E    E  E  E E  E    E E  E
|-15------15-------16---15-|---15-------13---16---|-15----15--------16---15-|
|--------------------------|---------15-----------|-------------------------|
|-12------12-------13---12-|---12-------10---13---|-12----12--------13---12-|
|--------------------------|---------12-----------|-------------------------|
|--------------------------|----------------------|-------------------------|
|--------------------------|----------------------|-------------------------|


   +E   E Q     Q   E  E    E  E  E  E  E  E E  E    +E   E  E  E   Q      E E
|-(13)-15----------------|-------------11-15---13-|-(13)-13-13-15--------------|
|------------------16-15-|-13-13-13-13------------|----------------16----------|
|------------------------|------------------------|-----------------------17---|
|------------------------|------------------------|----------------------------|
|------------------------|------------------------|----------------------------|
|------------------------|------------------------|----------------------------|
|
|  +E   E Q     Q   E  E    Q     E  E  E  E E  E     E   E  E  E   Q      E E
|------------------------|--8-----8--8--8--8----7-|-------7--7--7--------------|
|--(6)--8-----------8----|--8-----8--8--8--8----6-|-------8--8--8---8----------|
|--(7)--7-----------8--7-|--8-----8--8--8--8----7-|-------7--7--7---8----------|
|--(9)--9----------------|------------------------|----------------10-----10---|
|------------------------|------------------------|----------------------------|
|------------------------|------------------------|----------------------------|
|
|   E   E E  E  Q   E  E    E  E  E  E  E  E E  E     E   E  E  E  +E   E  E E
|------15------13--16----|-15----15-------16---15-|------15-13-11-(11)-10------|
|-----------15-----------|------------------------|-----------------------11-8-|
|------12------10--13----|-12----12-------13---12-|------12-10--8--(8)--7----0-|
|-----------12-----------|------------------------|------------------------8---|
|------------------------|------------------------|----------------------------|
|------------------------|------------------------|----------------------------|


  Gtr III
   E   E    Q      H      W          W          W
|-----------------------|----------|----------|------|
|-13--------------------|----------|----------|------|
|-----------------------|----------|----------|------|
|-10--------------------|----------|----------|------|
|-----------------------|----------|----------|------|
|-----------------------|----------|----------|------|
|
| Gtr V
|  S E   S +S  S E H      W          W          W
|----8---8-(8)----------|----------|----------|------|
|----8---8-(8)----------|----------|----------|------|
|----8---8-(8)----------|----------|----------|------|
|-----------------------|----------|----------|------|
|-----------------------|----------|----------|------|
|----8---8-(8)----------|----------|----------|------|


  Gtr V
  S  E  S  +S  S E S E  S  +S  S E
|---11-11-(11)-------0-16-(16)-----|
|----------------------------------|
|----------------------------------|
|---10-10-(10)---------------------|
|----------------------------------|
|----8--8--(8)---------13-(13)-----|


  S  E S Q  S E  S  +S  S E   S  E  S  +S  S E S E S E E
|---22-0-0----0-------------|---11-11-(11)-------0-0-0----|
|---20----------21-(21)-----|-----------------------------|
|----0----------------------|-----------------------------|
|---------------------------|---10------------------------|
|---------------20-(20)-----|-----------------------------|
|---22----------20-(20)-----|----8--8--(8)----------------|


  Gtr I
  H                 Q   Q     Q.               E      H
|--------------------------|------------------------------------------------|
|------------------16--15--|-13---------------------------------------------|
|--------------------------|------------------------------------------------|
|--------------------------|------------------------------------------------|
|--------------------------|------------------------------------------------|
|--------------------------|------------------------------------------------|
|
| Gtr III
| H                 Q   Q     E      E   E     E      E   E      E     E
|------------------23--22--|-20---------------------------------------------|
|--------------------------|-20---------20---------------21-----------20----|
|--------------------------|-20---------20---------------22-----------22----|
|--------------------------|-22---------22---------------24-----------24----|
|--------------------------|------------------------------------------------|
|------------------23--22--|-20---------------------------------------------|
|
| Gtr V
| S  E  S  +S  S E  H         S   E.    +S   E    S  +E.     S  +S  E     S
|---15-15-(15)-------------|------------------------------------------------|
|---18-18-(18)-------------|----------------16--------------16-(16)---------|
|----0--0--(0)-------------|-----15----(15)-17--------------17-(17)------17-|
|---17-17-(17)-------------|----------------17---19-(19)----17-(17)---------|
|--------------------------|----------------18--------------18-(18)---------|
|--------------------------|-----18----(18)------17-(17)-----------------20-|


    H                    Q          Q
|-----------------------20---------18---------|
|---------------------------------------------|
|---------------------------------------------|
|---------------------------------------------|
|---------------------------------------------|
|---------------------------------------------|
|
|   Q       E     E      Q          Q
|---------------------------------------------|
|----------------------------------21---------|
|----------------19-----22--------------------|
|----------------------------------18---------|
|-----------------------20--------------------|
|----------------22---------------------------|
|
|  +E.  S  +S  E     S  +S   E  S  +S   E  S
|-----------------------------------------16--|
|------18-(18)-------------------------18-----|
|-(17)-17-(17)------16-(16)-17-19-(19)----13--|
|------18-(18)-------------------------15-----|
|------------------------------17-(17)--------|
|-(20)--------------19-(19)-20----------------|


    H                      +E   E      Q            H                  Q         Q
|--20---------------------(20)------------------|---------------------20--------20-----|
|-----------------------------------------------|--------------------------------------|
|-----------------------------------------------|--------------------------------------|
|-----------------------------------------------|--------------------------------------|
|-----------------------------------------------|--------------------------------------|
|-----------------------------------------------|--------------------------------------|
|
|   E      E   E     E      E   E      E   E        E   E    E  E      Q         Q
|-----------------------------------------------|--------------------------------------|
|--20---------20---------------21---------20----|------20-----------------------21-----|
|--20---------20---------------22---------19----|------19------19-----22---------------|
|--22---------22---------------24---------21----|------21-----------------------18-----|
|-----------------------------------------------|---------------------20---------------|
|-----------------------------------------------|--------------22----------------------|
|
|  +S   E.    +S   E    S  +E   S  S  +E.     S    +E.     S E  S  S  +S  E  S  +E.  S
|-(16)-20----(20)------22-(22)----20-(20)-------|-----------------13-(13)---11-(11)-11-|
|------20----(20)------23-(23)----21-(21)----24-|-(24)----21---------------------------|
|-(13)-20----(20)------19-(19)---------------24-|-(24)----22---------------------------|
|----------------------20-(20)----22-(22)----21-|-(21)---------------------------------|
|-----------------22--------------23-(23)----22-|-(22)---------------------------------|
|-----------------------------------------------|-----------------13-(13)--------------|


    H                       H
|--23----------------------------------------------|
|--------------------------------------------------|
|--------------------------------------------------|
|--------------------------------------------------|
|--------------------------------------------------|
|--------------------------------------------------|
|
|   E      E   E     E      E   E      E     E
|--------------------------------------------------|
|--20---------20---------------21-----------20-----|
|--20---------20---------------22-----------19-----|
|--22---------22---------------24-----------21-----|
|--------------------------------------------------|
|--------------------------------------------------|
|
|  +S   E.    +S   E    S  +E.     S  +S  E     S
|-(11)------------11--------------11-(11)----------|
|-----------------13--------------13-(13)------13--|
|------15----(15)-12---14-(14)----12-(12)----------|
|-----------------13--------------13-(13)------10--|
|------13----(13)------12-(12)---------------------|
|--------------------------------------------------|


    H                       Q          Q
|--------------------------20---------20--------|
|-----------------------------------------------|
|-----------------------------------------------|
|-----------------------------------------------|
|-----------------------------------------------|
|-----------------------------------------------|
|
|   E   E      E     E      Q          Q
|-----------------------------------------------|
|------20-----------------------------21--------|
|------19-----------19-----22-------------------|
|------21-----------------------------18--------|
|--------------------------20-------------------|
|-------------------22--------------------------|
|
|  +E.     S  +S  E     S  +S   E  S  +S   E  S
|---------13-(13)----------------------------16-|
|-(13)----13-(13)-------------------------18----|
|---------13-(13)------16-(16)-17-19-(19)----13-|
|-(10)------------------------------------15----|
|----------------------14-(14)-15-17-(17)-------|
|-----------------------------------------------|


    H                   E     E    Q              H                     Q       Q
|---0-------------------0---------------------|------------------------------------|
|---------------------------------------------|------------------------------------|
|---------------------------------------------|------------------------20------19--|
|---------------------------------------------|------------------------------------|
|---------------------------------------------|------------------------------------|
|---------------------------------------------|------------------------------------|
|
|   E    E    E    E    E     E    E     E        E     E    E     E    Q       Q
|---------------------------------------------|------------------------------------|
|--20--------20--------------21---------20----|--------20--------------------------|
|--20--------20--------------22---------19----|--------19---------19---22----------|
|--22--------22--------------24---------21----|--------21--------------------------|
|---------------------------------------------|------------------------20----------|
|---------------------------------------------|-------------------22---------------|
|
|  +S  E   S  S  E   S +S  E    S +S  E     S    +S  E    S +S  E    S +S  S E  Q
|-(16)-8-----------------------------------10-|-(10)-------------------------------|
|------8-----------------------------------12-|-(12)-----------------6-(6)---------|
|-(13)-8-----------------------------------12-|-(12)-------------------------------|
|-------------------------------6-(6)---------|----------------------3-(3)---------|
|--------------------8-(8)-----------------10-|-(10)-------------------------------|
|------8--------10----------------------------|-----------3-(3)--------------------|


   Q.      E  E    E E  E    +E   E Q     Q   E  E    E  S S  E  E  E  E E  E
|-----------------15---13-|-(13)-15----------------|---------------11-15---13-|
|------------16-----------|------------------16-15-|-13-13---13-13------------|
|-17----------------------|------------------------|--------------------------|
|-------------------------|------------------------|--------------------------|
|-------------------------|------------------------|--------------------------|
|-------------------------|------------------------|--------------------------|
|
| Gtr II
|  Q     Q    S S  E E  E    +E   E Q     Q   E  E    Q       E  E  E  E E  E
|-------------------------|------------------------|--8-------8--8--8--8----7-|
|--8---------------8----6-|--(6)--8-----------8----|--8-------8--8--8--8----6-|
|--8----------8----8----7-|--(7)--7-----------8--7-|--8-------8--8--8--8----7-|
|-10---------10---10----9-|--(9)--9----------------|--------------------------|
|-------------------------|------------------------|--------------------------|
|-------------------------|------------------------|--------------------------|
|
| Gtr III
|  E  E  E E  E    E E  E     E   E E  E  Q   E  E    E  E    E  E  E  E E  E
|-------------------------|------------------16----|-15------15-------16---15-|
|-----------------21---20-|------20------18--------|--------------------------|
|-24----24----------------|-----------19-----13----|-12------12-------13---12-|
|-----------------18---17-|------17------15--------|--------------------------|
|-22----22----------------|-----------17-----------|--------------------------|
|-------------------------|------------------------|--------------------------|


  E  E  E  E  Q    Q      Q.      E  E    E E  E    +E   E Q     Q   E  E
|---13-13-15-----------|------------11---15---13-|-(13)-15-----------------|
|------------16---15---|-13----------------------|------------------16-15--|
|----------------------|-------------------------|-------------------------|
|----------------------|-------------------------|-------------------------|
|----------------------|-------------------------|-------------------------|
|----------------------|-------------------------|-------------------------|
|
| E  E  E  E  E E  E E    Q     Q    S S  E E  E    +E   E Q     Q   E  E
|----7--7--7--7----7---|-------------------------|-------------------------|
|----6--6--6--6----6---|--8---------------8----6-|--(6)--8-----------8-----|
|----7--7--7--7----7---|--8----------8----8----7-|--(7)--7-----------8--7--|
|----------------------|-10---------10---10----9-|--(9)--9-----------------|
|----------------------|-------------------------|-------------------------|
|----------------------|-------------------------|-------------------------|
|
| E  E  E  E  Q    E E    E  E  E E  E    E E  E     E   E E  E  Q   E  E
|---15-------13---16---|-15----15--------16---15-|------15------13--16-----|
|---------15-----------|-------------------------|-----------15------------|
|---12-------10---13---|-12----12--------13---12-|------12------10--13-----|
|---------12-----------|-------------------------|-----------12------------|
|----------------------|-------------------------|-------------------------|
|----------------------|-------------------------|-------------------------|


   E  S S  E  E  E  E E  E
|---------------11-15---13-|
|-13-13---13-13------------|
|--------------------------|
|--------------------------|
|--------------------------|
|--------------------------|
|
|  Q       E  E  E  E E  E
|--8-------8--8--8--8----7-|
|--8-------8--8--8--8----6-|
|--8-------8--8--8--8----7-|
|--------------------------|
|--------------------------|
|--------------------------|
|
|  E  E    E  E  E  E E  E
|-15------15-------16---15-|
|--------------------------|
|-12------12-------13---12-|
|--------------------------|
|--------------------------|
|--------------------------|


  E  E  E  E  Q      E     E      E  E     +E     E H
|---13-13-15-------------------|-------------------------*|
|------------16-----15---------|-15-13----(13)-----------*|
|------------------------------|-------------------------*|
|------------------------------|-------------------------*|
|------------------------------|-------------------------*|
|------------------------------|-------------------------*|
|
| E  E  E  E  H                   W
|----7--7--7-------------------|-------------------------*|
|----6--6--6-------------------|-------------------------*|
|----7--7--7-------------------|-------------------------*|
|------------------------------|-------------------------*|
|------------------------------|-------------------------*|
|------------------------------|-------------------------*|
|
| H           E S S +S   E   S    E  S  S  +S  S  E H
|-------------1---1-(1)-19-----|-17------------8---------*|
|-------------3---3-(3)--------|-20-18---------6---------*|
|-------------5---5-(5)--------|-20-21-19-(19)-9--7------*|
|------------------------------|-----------------10------*|
|-----------------------17-----|-----------------10------*|
|-----------------------20-----|-------------------------*|


Duration Legend
---------------
W - whole; H - half; Q - quarter; E - 8th; S - 16th; T - 32nd; X - 64th; a - acciaccatura
+ - note tied to previous; . - note dotted; .. - note double dotted
Uncapitalized letters represent notes that are staccato (1/2 duration)
Irregular groupings are notated above the duration line
Duration letters will always appear directly above the note/fret number it represents the
duration for.  Duration letters with no fret number below them represent rests.  Multi-
bar rests are notated in the form Wxn, where n is the number of bars to rest for.  Low
melody durations appear below the staff

Tablature Legend
----------------
 h   - hammer-on
 p   - pull-off
 b   - bend
 pb  - pre-bend
 r   - bend release (if no number after the r, then release immediately)
 /\  - slide into or out of (from/to "nowhere")
 s   - legato slide
 S   - shift slide
  - natural harmonic
[n]  - artificial harmonic
n(n) - tapped harmonic
 ~   - vibrato
 tr  - trill
 T   - tap
 TP  - trem. picking
 PM  - palm muting
\n/  - tremolo bar dip; n = amount to dip
 \n  - tremolo bar down
 n/  - tremolo bar up
/n\  - tremolo bar inverted dip
 =   - hold bend; also acts as connecting device for hammers/pulls
 <>  - volume swell (louder/softer)
 x   - on rhythm slash represents muted slash
 o   - on rhythm slash represents single note slash

Misc Legend
-----------
 |  - bar
||  - double bar
||o - repeat start
o|| - repeat end
*|  - double bar (ending)
 :  - bar (freetime)
 $  - Segno
 &  - Coda
Tempo markers -  = BPM(8/16=s8/s16), where s8 = swing 8ths, s16 = swing 16ths
Tap to rate this tab
# A B C D E F G H I J K L M N O P Q R S T U V W X Y Z