Song name
# A B C D E F G H I J K L M N O P Q R S T U V W X Y Z

Jennifer Love Hewitt - Barenaked tab

Help us improve GuitareTab! Take a short survey!
Intro & Refrain


--------3-----------------2--0---------------------------------------|
-----------0-----------3--------3--------1-----------------1---------|
-----0--------0-----2-----------------2-----2-----------0-----0------|
-----------------0-----------------------------2-----2-----------2---|
-----------------------------------0--------------3------------------|
--3------------------------------------------------------------------|


-----------3--------------2--0---------------------------------------|
--------0-----0--------3--------3--------1---------------------------|
-----0--------------2-----------------2-----2-------0---0------------|
-----------------0-----------------------------2---------------------|
-----------------------------------0--------------3---2---0----------|
--3------------------------------------------------------------------|
Related for Barenaked tab