Song name
# A B C D E F G H I J K L M N O P Q R S T U V W X Y Z

Jennifer Rostock - Du Willst Mir An Die Wasche tab

Hi,

hab hier mal  von Jennifer Rostock das Lied "Du willst mir an die Wäsche" getabbt. DA es 
ja hier noch nich gibt und viele Nach gefragt haben.
Eigentlich hat das Lied nur ein Hauptriff so wie ichs rausgehört habe.

Tuning: E


Intro:

E------------------------------------------------|
H------------------------------------------------|
G-14p15-14-12-10---- 12--12--14-12-10 -----------|
D----------------12------------------12----------|
A------------------------------------------------|
E------------------------------------------------|


Strophe/Refrain:

E--------------|
H--------------|
G--3-----5--7--|
D--3--3--5--7--|
A--1--3--3--5--|
E-----1--------|

Also:  B   F   C   D

Den Anschlag und das Abdämpfen werdet ihr leicht raushören. Bei fragen und 
stehe ich gern zur Verfügung!
EMail: m.proll@gmx.net

Viel SPaß ;)
Tap to rate this tab
# A B C D E F G H I J K L M N O P Q R S T U V W X Y Z