Song name
# A B C D E F G H I J K L M N O P Q R S T U V W X Y Z

Jennifer Rostock - Irgendwo Anders tab

Capo on second fret

Intro:

e|--------------------------|
B|--------------------------|
G|----0--------0------------|
D|------2--------0------2---|
A|----------3--------0------|
E|--------2--------3--------|
   4x

Strophe 1:

e|----------------------------------------------|
B|----------------------------------------------|
G|----0--------0-------------4--------2---------|
D|------2--------0------2------4--------2-----0-|
A|----------3--------0-------------3--------2---|
E|--------2--------3-------------1--------0-----|
   2x

e|------------------------------|
B|------------------------------|
G|----0--------0--------2-------|
D|------2--------0--------2-----|
A|----------3--------0--------2-|
E|--------2--------3--------0---|
   2x

1x Bm, Em, D, A

Chorous:

2x Em, G, D, A
1x G  

e|--------------------------|
B|--------------------------|
G|----0--------0------------|
D|------2--------0------2---|
A|----------3--------0------|
E|--------2--------3--------|
   2x

Strophe 2:

e|----------------------------------------------|
B|----------------------------------------------|
G|----0--------0-------------4--------2---------|
D|------2--------0------2------4--------2-----0-|
A|----------3--------0-------------3--------2---|
E|--------2--------3-------------1--------0-----|
   2x

Chorous:

2x Em, G, D, A
1x G  

e|--------------------------|
B|--------------------------|
G|----0--------0------------|
D|------2--------0------2---|
A|----------3--------0------|
E|--------2--------3--------|
   2x

Bridge:

2x Em, Bm, Em, G

e|--------------|
B|--------------|
G|----2---------|
D|------2-------|
A|--------2-----|
E|----------0---|

3x Chorous:

2x Em, G, D, A

after the thrid time Chorous

1x G  

e|--------------------------|
B|--------------------------|
G|----0--------0------------|
D|------2--------0------2---|
A|----------3--------0------|
E|--------2--------3--------|
   2x


END

I don't know if this is right but it sounds really good.

Have fun xoxo
Tap to rate this tab
 
# A B C D E F G H I J K L M N O P Q R S T U V W X Y Z