Song name
# A B C D E F G H I J K L M N O P Q R S T U V W X Y Z

Jenny Owen Youngs - Fuck Was I tab

this is just the intro

e|-------3-----------------------------------------------------|
B|-------------------------------------------------------------|
G|-------------------------------------------------------------|
D|-----------4----2--0-----------------------------------------|
A|---------------------3--2--0---------------------------------|
E|---3---------------------------------------------------------|  (X2)

or

e|-------3--2---0---------------------------------------------------|
B|-----------------3--1--0------------------------------------------|
G|---------------------------2--------------------------------------|
D|------------------------------------------------------------------|
A|------------------------------------------------------------------|
E|---3--------------------------------------------------------------|  (X2)
Tap to rate this tab
 
# A B C D E F G H I J K L M N O P Q R S T U V W X Y Z