Song name
# A B C D E F G H I J K L M N O P Q R S T U V W X Y Z

Jenny Suk - Telling You tab

------------------------------------------------------
	      "Telling You” - Jenny Suk
            http://youtu.be/nBElbOMKiAs
------------------------------------------------------
Tabbed by: Justin Riray               Subscribe!
Youtube:   http://www.youtube.com/JustinRiray
Facebook:  http://www.facebook.com/Riray

Here’s Jenny’s first original Youtube song.
A cliche love song, “Telling You.”

Tuning: Capo 5 (Standard)

     INTRO
e|----------------------------------------------|
B|---0---0-----2---2----0---0-------0-----------|
G|----2---2-----2---2----1---1------------------|
D|--2--2-----p0--0-----2--2-------3-------------|
A|-----------------------------/4---------------|
E|-2--------------------------------------------|

     VERSE            Pre-CHORUS
e|--------0--0---|---------0------------3------------|
B|--0--2--0--0---|---2--0--0--0---2--3--3------------|
G|--2--2--1--4---|---2--1--1--4---2--0---------------|
D|--2--x--2--3---|---x--0--2--3---x--0---------------|
A|--x--2--0--4---|---2--2--0--4---2--2---------------|
E|--2------------|------0------------3---------------|

     CHORUS                          BRIDGE
e|---------0-----------------|---------------------3-|
B|--0-2--0-0--------0-2--0---|---2--0--0--2---2--3-3-|
G|--2-2--1-1--    --2-2--4---|---2--1--1--0---2--0---|
D|--2-x--0-2-- X3 --2-x--3---|---x--0--2--2---x--2---|
A|--x-2--2-0--    --x-2--4---|---2--2--0--0---2--3---|
E|--2----0----------2--------|-----------------------|
Tap to rate this tab
 
# A B C D E F G H I J K L M N O P Q R S T U V W X Y Z