Song name
# A B C D E F G H I J K L M N O P Q R S T U V W X Y Z

Jenoah - Jamie tab

----------------------------------------------------------------------------
			     Jamie - Jenoah
----------------------------------------------------------------------------
Tabbed by: Citizen "Wessinator" 44

Tuning:Standard E Tuning

Good luck with this song. It is very easy to get down. Also, the bridge is
missing but you can just play "Riff 2" over the bridge. Have fun.
Remember, "Morning is when Jenoah wakes up"!

 /  slide up
 \  slide down
 h  hammer-on
 p  pull-off
 ~  vibrato
 +  harmonic
 x  Mute note

RIFF 1

e|--------------------------------------------------------------------------|
B|--------------------------------------------------------------------------|
G|---4--4-4-4-4--3--3-3-3-3-------------------------------------------------|
D|---------------------------4--4-4-4-4---4--4-4-4-4------------------------|
A|--------------------------------------------------------------------------|
E|--------------------------------------------------------------------------|

e|--------------------------------------------------------------------------|
B|--------------------------------------------------------------------------|
G|--------------------------------------------------------------------------|
D|--------------------------------------------------------------------------|
A|---/7--7-7-7-7--6--6-6-6-6------------------------------------------------|
E|----------------------------7--7-7-7-7---7--7-7-7-7-----------------------|

RIFF 2

e|--------2--------------2--------------2--------------2--------------------|
B|--4---4---4------4---4---4------4---4---4------4---4---4------------------|
G|----4-------4------4-------4------4-------4------4-------4----------------|
D|--------------------------------------------------------------------------|
A|--------------------------------------------------------------------------|
E|--------------------------------------------------------------------------|

RIFF 3

e|--------------------------------------------------------------------------|
B|--------------------------------------------------------------------------|
G|-------------------7777777766666666---------------------------------------|
D|--7777777766666666-7777777766666666---------------------------------------|
A|--7777777766666666-5555555544444444---------------------------------------|
E|--5555555544444444--------------------------------------------------------|

You could just take all of these and fit them into the song according to your
liking, but here is the sequence in which the appear.

Riff 1 (2x)
Riff 2 (2x)
Riff 3 (2x)
Riff 1 (2x)
Riff 2 (2x)
Riff 3 (2x)
Bridge (Don't know the bridge, but you can repeat RIFF 2 in place of it.)
Riff 1 (3x and acoustic, not amplified.)
Riff 1 and Riff 2 are played over eachother until the edge of the song.
Man, finishing a tab feels awesome...


============================================================================
Tap to rate this tab
# A B C D E F G H I J K L M N O P Q R S T U V W X Y Z