Song name
# A B C D E F G H I J K L M N O P Q R S T U V W X Y Z

Jens Friebe - Lawinenhund tab

-------------------------------------------------------------------------------
			     Lawinenhund by Jens Friebe
-------------------------------------------------------------------------------
Tabbed by: Freddy.P
Email: --

Tuning: standard


LEGEND
~~~~~~~~~~~~~~~~~~
h   = Hammer on
p   = Pull off
^   = strum down
|:| = repeat
~~~~~~~~~~~~~~~~~~


CHORDS USED:
~~~~~~~~~~~~~~~~~~~~~~
   Fm C#  D# G#
   
E|-8---4--6--11---|
H|-7---6--8--13---|
G|-10--6--8--13---|
D|-10--6--8--13---|
A|-8---4--6--11---|
E|----------------|

~~~~~~~~~~~~~~~~~~~~~~


Intro/Verse:              
                 1     2
E|------------|------|-----|
H|------------|------|-----|
G|------------|------|-----|
D|-3--5h6p5-3-|-2-2*-|-5-5-| *sometimes he plays 5 at this point
A|------------|------|-----|
E|------------|------|-----|


Refrain: (strum ^^^^^^^^)

| Fm - C# - D# - Fm | (last time hold d# and leave out the Fm)


Bridge:

|:| Fm - D# - G# - Fm |:| Fm - G# D | 


Order: Intro - Verse - Refrain - Verse - Refrain - Bridge - Refrain (repeat until last chord: Fm)


I hope that works, I love that song - have a look on the lyrics,
they're great!
Tap to rate this tab
 
# A B C D E F G H I J K L M N O P Q R S T U V W X Y Z