Song name
# A B C D E F G H I J K L M N O P Q R S T U V W X Y Z

Jens Lekman - Kanske Ar Jar Kar I Dig tab

-------------------------------------------------------------------------------
		    Kanske Ar Jar Kar I Dig - Jens Lekman
-------------------------------------------------------------------------------
Tabbed by: David K.
Email: thischarmingman13@gmail.com

Tuning: Standard

e|-3--4--1-8--7--------------------------------------------------------------|
B|-3--4--1-8--6--------------------------------------------------------------|
G|-3--5--1-8--7--------------------------------------------------------------|
D|-5--6--3-10-5--------------------------------------------------------------|
A|---------------------------------------------------------------------------|
E|---------------------------------------------------------------------------|

These chords are repeated in various ways throughout the song with muting in the order 
E-mail me with questions and

| /  slide up
| \  slide down
| h  hammer-on
| p  pull-off
| ~  vibrato
| +  harmonic
| x  Mute note
===============================================================================
Tap to rate this tab
# A B C D E F G H I J K L M N O P Q R S T U V W X Y Z