Song name
# A B C D E F G H I J K L M N O P Q R S T U V W X Y Z

Jeny Alem - Feliz tab

Ok. La canción para mi representa una persona, que ya no le importo un bledo.

Espero que encuentres la felicidad que toda persona busca en el mundo, el tipo de 
felicidad que encontré en tu.

Extraño eso…   “The heart feels what the heart feels.”

Ps solo oigan la canción y de alguna u otra manera encontraran el ritmo y el sentido de la Tab.
Mas que todo me enfoque en la acústica de Jeny.

Peace n’ Love*


Intro

E|---0---x---0---|
B|---0---x---0---|
G|---0---x---0---|
D|---2---x---4---| x2
A|---3---x---5---|
E|---3---x---5---|


Verso 1 y 2

E|---3---3---3---3---|
B|---3---3---3---3---|
G|---0---0---0---0---|
D|---0---0---0---0---| x4
A|---3---2---0---0---|
E|-----------2---3---|


Pre-coro

E|---0~-----0---|
B|---0~-----0---|
G|---0~-----0---|
D|---2~-----2---|
A|---2~-----2---|
E|---x------0---|


Coro

E|---0---0---0---0---0---0---0---|
B|---0---0---0---0---1---0---0---|
G|---0---0---2---0---0---0---0---|
D|---2---4---2---3---2---2---4---|
A|---3---5---0---3---3---2---5---|
E|---3---5---0---1---0---0---5---|

Intro again.
Verso 2
Coro again

Bridge

E|---0-x-----0---0---0-0---|
B|---0-x-----0---0---1-0---|
G|---0-x-----0---2---0-0---|
D|---3-x-----3---2---2-2---|  x2
A|---3-x-2h3-3---0---3-2---|
E|---1-x-----1---0---0-0---|

E|---------0------------0------------0------|--0--|
B|------------0------------0------------0---|--0--|
G|------0------------0------------2---------|--0--|
D|-----------------------------2------------|--3--|
A|---3------------5-------------------------|--3--|
E|------------------------------------------|--1--|

E|---0---0---0---|
B|---1---0---0---|
G|---0---0---0---|
D|---2---2---4---|
A|---3---2---5---|
E|---0---0---5---|

Coro again


Outro			          End with this

E|---0---x---0---|		E|---0--x---|
B|---0---x---0---|		B|---0--x---|
G|---0---x---0---|		G|---0--x---|
D|---2---x---4---|		D|---2--x---|
A|---3---x---5---| x2		A|---3--x---|
E|---3---x---5---|		E|---3--x---|


http://profile.myspace.com/index.cfm?fuseaction=user.viewProfile&friendID=122384927

Tap to rate this tab
 
# A B C D E F G H I J K L M N O P Q R S T U V W X Y Z