Song name
# A B C D E F G H I J K L M N O P Q R S T U V W X Y Z

Jeopardy - Jeopardy Theme tab

some of the other versions posted didn't sound quite right to me. give this one a shot


e|------------------------------------------------|
B|-------------------------7---5------------------|
G|---7-------7-------7---7--------7-6-4-3---------|
D|-7---7---7---7---7---7--------------------------|
A|-------5----------------------------------------|
E|------------------------------------------------|

e|------------------------------------------------|
B|------------------------------------------------|
G|---7-------7----7-------------------------------|
D|-7---7---7---7-----9-7--------------------------|
A|-------5---------------10--9--7-----------------|
E|---------------------------------10-------------|


e|------------------------------------------------|
B|-------------------------9---7------------------|
G|---9-------9-------9---9--------9-8-6-5---------|
D|-9---9---9---9---9---9--------------------------|
A|-------7----------------------------------------|
E|------------------------------------------------|

e|------------------------------------------------|
B|------------------------------------------------|
G|---9-------9----9-------------------------------|
D|-9---9---9---9----11-9--------------------------|
A|-------7---------------12---11---9--------------|
E|-------------------------------------12---------|
Tap to rate this tab
# A B C D E F G H I J K L M N O P Q R S T U V W X Y Z