Song name
# A B C D E F G H I J K L M N O P Q R S T U V W X Y Z

Jeopardy - Jeopardy Theme tab

||----7-------7----|---7---7-/11~ 9-7---------|---7----------7----|
||--7---7---7---7~ |-7---7-------------11-9-8-|-7---7------7---7~ |
||--------4--------|--------------------------|--------4-4--------|
||-----------------|--------------------------|-------------------|
||-----------------|--------------------------|-------------------|
||-----------------|--------------------------|-------------------|

 |-------------------|-------------|----10----------10-----|
 |-/12~ -9-7-5-4-2-0-|-------------|-10----10----10----10~ |
 |-------------------|-------------|-----------7-----------|
 |-------------------|-------------|-----------------------|
 |-------------------|-------------|-----------------------|
 |-------------------|-------------|-----------------------|

 |-----10------10---/14~ -12-10----------|----10------------10----|
 |-10------10-------------------14-12-11-|-10----10------10----10-|
 |---------------------------------------|----------7-7-----------|
 |---------------------------------------|------------------------|
 |---------------------------------------|------------------------|
 |---------------------------------------|------------------------|

 |---------------------------------||
 |--/15~ -12-10-8-7~ -5~ -3~ ------||
 |---------------------------------||
 |------------------------------0--||
 |----------------------------0----||         Have Fun! :)
 |---------------------------------||
Tap to rate this tab
 
# A B C D E F G H I J K L M N O P Q R S T U V W X Y Z