Song name
# A B C D E F G H I J K L M N O P Q R S T U V W X Y Z

Jeopardy - Jeopardy Theme tab

This is my first tab, so be harsh, but tell the truth, give me some pointers, and 
hopefully I can improve. 

|-----------------------------------------------------------|
|------------------------------------------13--11-9---------|
|--8--13--8------8--13--8----8--13--8--13-----------12-10-9-|
|-----------------------------------------------------------|
|------------11---------------------------------------------|
|-----------------------------------------------------------|


|-----------------------------------------------------------|
|-----------------------------------------------------------|
|-8--13--8---------8--13--8----13--10-8---------------------|
|-----------10-11------------------------11--10--8--6-------|
|-----------------------------------------------------------|
|-----------------------------------------------------------|


|-------------------------------------------------------------------|
|------------------------------------------------16--14-12----------|
|--11--16--11------11--16--11----11--16--11--16------------15-13-12-|
|-------------------------------------------------------------------|
|--------------14---------------------------------------------------|
|-------------------------------------------------------------------|


|-----------------------------------------------------------------|
|-----------------------------------------------------------------|
|-11--16--11---------11--16--11----16--13-11----------------------|
|-------------13-14--------------------------14--13--11--9--------|
|-----------------------------------------------------------9--14-|
|-----------------------------------------------------------------|
Tap to rate this tab
 
# A B C D E F G H I J K L M N O P Q R S T U V W X Y Z