Song name
# A B C D E F G H I J K L M N O P Q R S T U V W X Y Z

Jeopardy - Jeopardy Theme tab

E|------------------------------------------11---9------------------------|
B|-------12----------12------------12----12--------12-11------------------|
G|----11----11----11----11~-----11----11-----------------13-11------------|
D|-------------9----------------------------------------------------------|
A|------------------------------------------------------------------------|
E|------------------------------------------------------------------------|

E|------------------------------------------------------------------------|
B|-------12----------12-----------12--------------------------------------|
G|---/11----11----11----11~------------13--11--9--8----6----4-------------|
D|-------------9----------------------------------------------------------|
A|--------------------------------------------------------------------2---|
E|-----------------------------------------------------------------2------|
Tap to rate this tab
 
# A B C D E F G H I J K L M N O P Q R S T U V W X Y Z