Song name
# A B C D E F G H I J K L M N O P Q R S T U V W X Y Z

Jeopardy - Jeopardy Theme Song tab

-----------------------------------------11-9----------------------------
-------12-----------12---------12----12-------12-10-9-8------------------
----11----11-----11----11---11----11-------------------------------------
-------------9-----------------------------------------------------------
-------------------------------------------------------------------------
-------------------------------------------------------------------------

-------------------------------------------------------------------------
-------12-----------12---12\---------------------------------------------
----11----11----11----11-------------------------------------------------
-------------9-----------------------------------------------------------
-------------------------------11-9--7---5----2--0-----------------------
----------------------------------------------2--0-----------------------

this song is pretty easy for beginners to learn.
email me at sflainpaktnioct@yahoo.com if you have any questions.
Tap to rate this tab
# A B C D E F G H I J K L M N O P Q R S T U V W X Y Z