Song name
# A B C D E F G H I J K L M N O P Q R S T U V W X Y Z

Jeremiah Clark - Understood tab

Understood? by Jeremiah Clark
www.jeremiahclarkmusic.com

capo 1st fret / standard tuning

TAB
{INTRO}
E ----0-0-----0-0-----0-0-----0-0-----0-0-----0-0-----0-0---------
B ----0-0-----0-0-----0-0-----0-0-----0-0-----0-0-----0-0---------
G ----8-8-----8-8-----8-8-----8-8-----8-8-----8-8-----8-8---------
D ----9-9-----9-9-----9-9-----9-9-----9-9-----9-9-----9-9---------
A ----7-7-----7-7-----7-7-----7-7-----7-7-----7-7-----7-7---------
E ----0-0-----0-0-----0-0-----0-0-----0-0-----0-0-----0-0---------

{VERSES}
E ----0-0-----0-0-----0-0-----0-0-----0-0-----0-0-----0-0-----0-0-
B ----0-0-----0-0-----0-0-----0-0-----0-0-----0-0-----0-0-----0-0-
G ----8-8-----8-8-----8-8-----8-8-----9-9-----9-9-----9-9-----9-9-
D ----9-9-----9-9-----9-9-----9-9-----9-9-----9-9-----9-9-----9-9-
A ----7-7-----7-7-----7-7-----7-7-----0-0-----0-0-----0-0-----0-0-
E ----0-0-----0-0-----0-0-----0-0-----0-0-----0-0-----0-0-----0-0-
  I will be who I am...      I will make the most of every moment.

E 0-0-0-0-0-0-0-000-(HOLD)--------0-0-0-0-0-0-0-000-(HOLD)--------
B 0-0-0-0-0-0-0-000-(HOLD)--------0-0-0-0-0-0-0-000-(HOLD)--------
G 4-4-4-4-4-4-4-442-(HOLD)--------4-4-4-4-4-4-4-442-(HOLD)--------
D 4-4-4-4-4-4-4-442-(HOLD)--------4-4-4-4-4-4-4-442-(HOLD)--------
A 2-2-2-2-2-2-2-220-(HOLD)--------2-2-2-2-2-2-2-220-(HOLD)--------
E 0-0-0-0-0-0-0-000-(HOLD)--------0-0-0-0-0-0-0-000-(HOLD)--------
  There's no reason...            Just because the way...

{CHORUS}
E 0-----0-----0-----0-----0---0---0-----0-----0-----0-----0---0---
B 0-----0-----0-----0-----0---0---0-----0-----0-----0-----0---0---
G 1-----1-----1-----1-----1---1---2-----2-----2-----2-----2---2---
D 2-----2-----2-----2-----2---2---2-----2-----2-----2-----2---2---
A 2-----2-----2-----2-----2---2---0-----0-----0-----0-----0---0---
E 0-----0-----0-----0-----0---0---X-----X-----X-----X-----X---X---
  I don't need to be understood...I don't care if you think I should

E 0-----0-----0---0-----0-----0---0-0-0-0-0-0-0-0-0-0-0-0-0-0-0-0-
B 0-----0-----0---0-----0-----0---0-0-0-0-0-0-0-0-0-0-0-0-0-0-0-0-
G 6-----6-----6---2-----2-----2---4-4-4-4-4-4-4-4-2-2-2-2-2-2-2-2-
D 6-----6-----6---2-----2-----2---4-4-4-4-4-4-4-4-2-2-2-2-2-2-2-2-
A 4-----4-----4---0-----0-----0---2-2-2-2-2-2-2-2-0-0-0-0-0-0-0-0-
E X-----X-----X---X-----X-----X---X-X-X-X-X-X-X-X-X-X-X-X-X-X-X-X- (repeat)
  Because I can't be contained... box you've placed around me...

{BRIDGE}
E 0-----0-----0---0-----0-----0---0-----0-----0---0-----0-----0---
B 0-----0-----0---0-----0-----0---0-----0-----0---0-----0-----0---
G 4-----4-----4---6-----6-----6---2-----2-----2---0-----0-----0---
D 4-----4-----4---6-----6-----6---2-----2-----2---2-----2-----2---
A 2-----2-----2---4-----4-----4---0-----0-----0---2-----2-----2---
E X-----X-----X---X-----X-----X---X-----X-----X---0-----0-----0---
  F*** this government!   Give us all the money that you've spent... 

E 0-0-0-0-0-0-0-0-0-0-0-0-0-0-0-0-0-----0-----0---0-----0-----0---
B 0-0-0-0-0-0-0-0-0-0-0-0-0-0-0-0-0-----0-----0---0-----0-----0---
G 4-4-4-4-4-4-4-4-6-6-6-6-6-6-6-6-2-----2-----2---2-----2-----2---
D 4-4-4-4-4-4-4-4-6-6-6-6-6-6-6-6-2-----2-----2---2-----2-----2---
A 2-2-2-2-2-2-2-2-4-4-4-4-4-4-4-4-0-----0-----0---0-----0-----0---
E X-X-X-X-X-X-X-X-X-X-X-X-X-X-X-X-X-----X-----X---X-----X-----X---
  All the lives...                taking we want, we want them back.

E 0-----0-----0---0-----0-----0---0-----0-----0---0-----0-----0---
B 0-----0-----0---0-----0-----0---0-----0-----0---0-----0-----0---
G 4-----4-----4---6-----6-----6---2-----2-----2---0-----0-----0---
D 4-----4-----4---6-----6-----6---2-----2-----2---2-----2-----2---
A 2-----2-----2---4-----4-----4---0-----0-----0---2-----2-----2---
E X-----X-----X---X-----X-----X---X-----X-----X---0-----0-----0---
  We're not buying it...  we will win what we came here to get...

E 0-0-0-0-0-0-0-0-0-0-0-0-0-0-0-0-0-(HOLD)------------------------
B 0-0-0-0-0-0-0-0-0-0-0-0-0-0-0-0-0-(HOLD)------------------------
G 4-4-4-4-4-4-4-4-6-6-6-6-6-6-6-6-2-(HOLD)------------------------
D 4-4-4-4-4-4-4-4-6-6-6-6-6-6-6-6-2-(HOLD)------------------------
A 2-2-2-2-2-2-2-2-4-4-4-4-4-4-4-4-0-(HOLD)------------------------
E X-X-X-X-X-X-X-X-X-X-X-X-X-X-X-X-X-(HOLD)------------------------
        It's our say...       not yours...

LYRICS
I will be who I am, I will be proud of it;
I will make the most of every moment
There's no reason I should feel defeated
Just because the way that I am treated

I will lift up my head, I will look to the sky;
I will do what I need to live out my life
There's no benefit for not attempting
And I will never go back to pretending

I don't need to be understood, and I don't care if you think I should
Because I can't be contained in this box you've placed around me: the walls that are surrounding
I just want to be loved like you, and I don't think I should have to prove
That I also deserve the same rights you are receiving: the ones that you are keeping from me

I will hold his hand, I will kiss his face;
We will do these things in a public place
And I don't feel the need to be censored;
I don't see the reason it's offensive

I will be his man, I will stand by him;
We will do these things despite judgment
And I won't waste all of my time guessing
Whether or not I have your blessing

I don't need to be understood, and I don't care if you think I should
Because I can't be contained in this box you've placed around me: the walls that are surrounding
I just want to be loved like you, and I don't think I should have to prove
That I also deserve the same rights you are receiving: the ones that you are keeping from me

F*** this government! Give us all the money that you've spent on our behalf
All the lives that you're still taking: we want, we want them back
We're not buying it! We will win what we came here to get, we'll end this war
It's our say-not yours

We don't need to be understood, and we don't care if you think we should
Because we can't be contained in this box you've placed around us: the walls that are surrounding
We just want to be loved like you, and we don't think we should have to prove
That we also deserve the same rights you are receiving: the ones that you are keeping from us

Copyright 2010 Jeremiah Clark and Gracie Sutherland.
Tap to rate this tab
 
# A B C D E F G H I J K L M N O P Q R S T U V W X Y Z