Jeremiah Clark - Practicing Lines tab

Practicing Lines by Jeremiah Clark
www.jeremiahclarkmusic.com

capo 4th fret / alt tuning EADEBE

TAB
{VERSES}
E ----0-0-0-0-0-0-----0-0-0-0-0-0-----0-0-0-0-0-0-----------------|
B ----0-0-0-0-0-0-----0-0-0-0-0-0-----0-0-0-0-0-0-----------------|
E ----0-0-0-0-0-0-----0-0-0-0-0-0-----0-0-0-0-0-0-----------------|
D ----2-2-2-2-2-2-----2-2-2-2-2-2-----2-2-2-2-2-2-----------------|
A ----2-2-2-2-2-2-----2-2-2-2-2-2-----2-2-2-2-2-2-----------------|
E ----0-0-0-0-0-0-----0-0-0-0-0-0-----0-0-0-0-0-0-----------------|
                                                  practicing lines

E ----0-0-0-0-0-0-----0-0-0-0-0-0-----0-0-0-0-0-0-----0-0-0-0-0-0-|
B ----0-0-0-0-0-0-----0-0-0-0-0-0-----0-0-0-0-0-0-----0-0-0-0-0-0-|
E ----0-0-0-0-0-0-----0-0-0-0-0-0-----2-2-2-2-2-2-----2-2-2-2-2-2-|
D ----2-2-2-2-2-2-----2-2-2-2-2-2-----2-2-2-2-2-2-----2-2-2-2-2-2-|
A ----2-2-2-2-2-2-----2-2-2-2-2-2-----0-0-0-0-0-0-----0-0-0-0-0-0-|
E ----0-0-0-0-0-0-----0-0-0-0-0-0-----X-X-X-X-X-X-----X-X-X-X-X-X-|
                      in front of a mirror        awkwardly trying

E ----0-0-0-0-0-0-----0-0-0-0-0-0-----0-0-0-0-0-0-----0-0-0-0-0-0-|
B ----0-0-0-0-0-0-----0-0-0-0-0-0-----0-0-0-0-0-0-----0-0-0-0-0-0-|
E ----0-0-0-0-0-0-----0-0-0-0-0-0-----2-2-2-2-2-2-----2-2-2-2-2-2-|
D ----2-2-2-2-2-2-----2-2-2-2-2-2-----2-2-2-2-2-2-----2-2-2-2-2-2-|
A ----2-2-2-2-2-2-----2-2-2-2-2-2-----0-0-0-0-0-0-----0-0-0-0-0-0-|
E ----0-0-0-0-0-0-----0-0-0-0-0-0-----X-X-X-X-X-X-----X-X-X-X-X-X-|
                      to make it all clearer            because...

E ----0-0-0-0-0-0-----0-0-0-0-0-0-----0-0-0-0-0-0-0-0-0-0-0-0-0-0-|
B ----0-0-0-0-0-0-----0-0-0-0-0-0-----0-0-0-0-0-0-0-0-0-0-0-0-0-0-|
E ----0-0-0-0-0-0-----0-0-0-0-0-0-----2-2-2-2-2-2-2-2-2-2-2-2-2-2-|
D ----6-6-6-6-6-6-----6-6-6-6-6-6-----2-2-2-2-2-2-2-2-2-2-2-2-2-2-|
A ----4-4-4-4-4-4-----4-4-4-4-4-4-----0-0-0-0-0-0-0-0-0-0-0-0-0-0-|
E ----0-0-0-0-0-0-----0-0-0-0-0-0-----X-X-X-X-X-X-X-X-X-X-X-X-X-X-|
                      last time             we didn't get that far

{PRE-CHORUS}
E ----0-0-0-0-0-0-----0-0-0-0-0-0-----0-0-0-0-0-0-0-0-0-0-0-0-0-0-|
B ----0-0-0-0-0-0-----0-0-0-0-0-0-----0-0-0-0-0-0-0-0-0-0-0-0-0-0-|
E ----0-0-0-0-0-0-----0-0-0-0-0-0-----0-0-0-0-0-0-0-0-0-0-0-0-0-0-|
D ----2-2-2-2-2-2-----2-2-2-2-2-2-----2-2-2-2-2-2-2-2-2-2-2-2-2-2-|
A ----2-2-2-2-2-2-----2-2-2-2-2-2-----2-2-2-2-2-2-2-2-2-2-2-2-2-2-|
E ----0-0-0-0-0-0-----0-0-0-0-0-0-----0-0-0-0-0-0-0-0-0-0-0-0-0-0-|

{CHORUS} Strumming up and down
E 0-0-0-0-0-0-0-0-0-0-0-0-0-0-0-0-0-0-0-0-0-0-0-0-0-0-0-0-0-0-0-0-|
B 0-0-0-0-0-0-0-0-0-0-0-0-0-0-0-0-0-0-0-0-0-0-0-0-0-0-0-0-0-0-0-0-|
E 0-0-0-0-0-0-0-0-0-0-0-0-0-0-0-0-0-0-0-0-0-0-0-0-0-0-0-0-0-0-0-0-|
D 4-4-4-4-4-4-4-4-4-4-4-4-4-4-4-4-6-6-6-6-6-6-6-6-6-6-6-6-6-6-6-6-|
A 2-2-2-2-2-2-2-2-2-2-2-2-2-2-2-2-4-4-4-4-4-4-4-4-4-4-4-4-4-4-4-4-|
E X-X-X-X-X-X-X-X-X-X-X-X-X-X-X-X-X-X-X-X-X-X-X-X-X-X-X-X-X-X-X-X-|
  we both know             but we can't go there

E 0-0-0-0-0-0-0-0-0-0-0-0-0-0-0-0-0-0-0-0-0-0-0-0-0-0-0-0-0-0-0-0-|
B 0-0-0-0-0-0-0-0-0-0-0-0-0-0-0-0-0-0-0-0-0-0-0-0-0-0-0-0-0-0-0-0-|
E 0-0-0-0-0-0-0-0-0-0-0-0-0-0-0-0-0-0-0-0-0-0-0-0-0-0-0-0-2-2-2-2-|
D 2-2-2-2-2-2-2-2-2-2-2-2-2-2-2-2-4-4-4-4-4-4-4-4-4-4-4-4-2-2-2-2-|
A 2-2-2-2-2-2-2-2-2-2-2-2-2-2-2-2-2-2-2-2-2-2-2-2-2-2-2-2-0-0-0-0-|
E 0-0-0-0-0-0-0-0-0-0-0-0-0-0-0-0-X-X-X-X-X-X-X-X-X-X-X-X-X-X-X-X-|
  it's funny how convenience keeps this up

E 0-0-0-0-0-0-0-0-0-0-0-0-0-0-0-0-0-0-0-0-0-0-0-0-0-0-0-0-0-0-0-0-|
B 0-0-0-0-0-0-0-0-0-0-0-0-0-0-0-0-0-0-0-0-0-0-0-0-0-0-0-0-0-0-0-0-|
E 0-0-0-0-0-0-0-0-0-0-0-0-0-0-0-0-0-0-0-0-0-0-0-0-0-0-0-0-0-0-0-0-|
D 4-4-4-4-4-4-4-4-4-4-4-4-4-4-4-4-6-6-6-6-6-6-6-6-6-6-6-6-6-6-6-6-|
A 2-2-2-2-2-2-2-2-2-2-2-2-2-2-2-2-4-4-4-4-4-4-4-4-4-4-4-4-4-4-4-4-|
E X-X-X-X-X-X-X-X-X-X-X-X-X-X-X-X-X-X-X-X-X-X-X-X-X-X-X-X-X-X-X-X-|
  we're trying            but the truth we're fighting

E 0---------------------------------------------------------------|
B 0---------------------------------------------------------------|
E 2---------------------------------------------------------------|
D 2---------------------------------------------------------------|
A 0---------------------------------------------------------------|
E X(HOLD this chord for 13 beats followed by SILENCE for 3 beats)-
  is maybe we know love is not enough

{BRIDGE} - Strumming up and down
E 0-0-0-0-0-0-0-0-0-0-0-0-0-0-0-0-0-0-0-0-0-0-0-0-0-0-0-0-0-0-0-0-|
B 0-0-0-0-0-0-0-0-0-0-0-0-0-0-0-0-0-0-0-0-0-0-0-0-0-0-0-0-0-0-0-0-|
E 0-0-0-0-0-0-0-0-0-0-0-0-0-0-0-0-0-0-0-0-0-0-0-0-0-0-0-0-0-0-0-0-|
D 6-6-6-6-6-6-6-6-6-6-6-6-6-6-6-6-2-2-2-2-2-2-2-2-2-2-2-2-2-2-2-2-|
A 4-4-4-4-4-4-4-4-4-4-4-4-4-4-4-4-2-2-2-2-2-2-2-2-2-2-2-2-2-2-2-2-|
E X-X-X-X-X-X-X-X-X-X-X-X-X-X-X-X-0-0-0-0-0-0-0-0-0-0-0-0-0-0-0-0-|
  and it's easier to stay

E 0---------------------------------------------------------------|
B 0---------------------------------------------------------------|
E 2---------------------------------------------------------------|
D 2---------------------------------------------------------------|
A 0---------------------------------------------------------------|
E X(HOLD this chord for 13 beats followed by SILENCE for 3 beats)-
  when we're facing our separate ways

LYRICS
Practicing lines in front of a mirror
Awkwardly trying to make it all clearer
Because last time
We didn't get that far

Handling calls for second opinions
Trying to stall before making decisions
Because last time
We didn't have the heart

We both know but we can't go there
It's funny how convenience keeps this up
We're trying but the truth we're fighting
Is maybe we know love is not enough

Mumbling words to get us through dinner
It's rather absurd how we act like beginners
Maybe this time
One of us will break

Traveling home with music to cover
Everything's wrong when we look at each other
Maybe this time
Will be the last mistake

We both know but we can't go there
It's funny how convenience keeps this up
We're trying but the truth we're fighting
Is maybe we know love is not enough

It's easier to stay when we're facing our separate ways

Practicing lines in front of a mirror
Awkwardly trying to make it all clearer
Because last time
We didn't get that far

Copyright 2010 Jeremiah Clark and Gracie Sutherland.
Tap to rate this tab
 
# A B C D E F G H I J K L M N O P Q R S T U V W X Y Z