Song name
# A B C D E F G H I J K L M N O P Q R S T U V W X Y Z

Jeremiah Freed - Sweet Girl tab

-------------------------------------------------------------------------------
			     Sweet Girl - Jeremiah Freed
-------------------------------------------------------------------------------
Tabbed by: SKooL-z
Email: skool_z@hotmail.com

Tuning: Half-Step Down 

Listen to the song to get the rythym


Intro/Verse
e|---------------------------------------------------------------------------|
B|-----8------8------8------8------88----------------------------------------|
G|-----7------7------7------7------77----------------------------------------|
D|-----5------5------5------5------55----------------------------------------|
A|---------------------------------------------------------------------------|
E|-00-----00-----00-----00-----00--------------------------------------------|


Chorus
e|---------------------------------------------------------------------------|
B|-------8/------------------------------------------------------------------|
G|-------7/------------------------------------------------------------------|
D|-222---5/------------8-7---5555-4-3----------------------------------------|
A|-222--------------5--8-7---5555-4-3----------------------------------------|
E|-000---------6h7-----6-5-0-3333-2-1----------------------------------------|


Pre/Post-Chorus
e|---------------------------------------------------------------------------|
B|---------------------------------------------------------------------------|
G|---------------------------------------------------------------------------|
D|-777--5-5--777--5-5--7575--------------------------------------------------|
A|-777--5-5--777--5-5--7575--------------------------------------------------|
E|-555--3-3--555--3-3--5353--------------------------------------------------|


Outro
e|---------------------------------------------------------------------------|
B|---------------------------------------------------------------------------|
G|---------------------------------------------------------------------------|
D|-------------------------------------------------5b------------------------|
A|---7b-5b-----------------------7b-5b---------------------------------------|
E|-0-------7b-6b-5b-3bh5b-5-0--0-------7b-6b-5b-3b---------------------------|

e|---------------------------------------------------------------------------|
B|---------------------------------------------------------------------------|
G|---------------------------------------------------------------------------|
D|---------------------------------------------------------------------------|
A|---7b-5b-------------------------------------------------------------------|
E|-0-------7b-6b-5b-3bh5b-5-0-0-3bh5b-5-0-0-3bh5b-5-0------------------------|


| /  slide 
| b  bend
| h  hammer-on
| p  pull-off
| ~  vibrato
| +  harmonic
| x  Mute note
===============================================================================
Tap to rate this tab
# A B C D E F G H I J K L M N O P Q R S T U V W X Y Z