Song name
# A B C D E F G H I J K L M N O P Q R S T U V W X Y Z

Jeremiah Freed - Slowburn tab

-------------------------------------------------------------------------------
			     Slowburn - Jeremiah Freed
-------------------------------------------------------------------------------
Tabbed by: SKooL-z
Email: skool_z@hotmail.com

Tuning: Half-Step Down

Just listen to the song to get the rythym


Intro/Verse
e|---------------------------------------------------------------------------|
B|---------------------------------------------------------------------------|
G|---------------------------------------------------------------------------|
D|-------3---------------3-5---------------3-5bp3-----------3-5--------------|
A|-5-3h5---x-3h5-5-3h5-x-3-5-x-3h5-5-3h5-x--------5-5-3h5-x-3-5-x-3h5--------|
E|-----------------------1-3--------------------------------1-3--------------|


Chorus
e|---------------------------------------------------------------------------|
B|---------------------------------------------------------------------------|
G|-7/5/7/5------5------------------------------------------------------------|
D|-7/5/7/5-333--5------------------------------------------------------------|
A|-5/3/5/3-333--3------------------------------------------------------------|
E|---------111---------------------------------------------------------------|


Bridge
e|---------------------------------------------------------------------------|
B|---------------------------------------------------------------------------|
G|-5/7777777/1010101010/121212121212--10101010--555--------------------------|
D|-5/7777777/1010101010/121212121212--10101010--555--------------------------|
A|-3/5555555/8-8-8-8-8-/101010101010--8-8-8-8---333--------------------------|
E|---------------------------------------------------------------------------|


Interlude
e|---------------------------------------------------------------------------|
B|---------------------------------------------------------------------------|
G|-5/777777/5555555/7777777/5555555/7777777/5555555/7777777/5555555----------|
D|-5/777777/5555555/7777777/5555555/7777777/5555555/7777777/5555555----------|
A|-3/555555/3333333/5555555/3333333/5555555/3333333/5555555/3333333----------|
E|---------------------------------------------------------------------------|



| /  slide 
| b  bend
| h  hammer-on
| p  pull-off
| ~  vibrato
| +  harmonic
| x  Mute note
===============================================================================
Tap to rate this tab
# A B C D E F G H I J K L M N O P Q R S T U V W X Y Z