Song name
# A B C D E F G H I J K L M N O P Q R S T U V W X Y Z

Jeremiah Freed - Off The Bottle tab

-------------------------------------------------------------------------------
			     Off The Bottle - Jeremiah Freed
-------------------------------------------------------------------------------
Tabbed by: SKooL-z
Email: skool_z@hotmail.com

Tuning: Half-Step Down

Just listen to the song to get the rythym


Intro/Verse
e|---------------------------------------------------------------------------|
B|-12121212/1010101010--88888/101010101010-----------------------------------|
G|-xxxxxxxx/xxxxxxxxxx--xxxxx/xxxxxxxxxxxx-----------------------------------|
D|-9-9-9-9-/7-7-7-7-7---55555/7-7-7-7-7-7------------------------------------|
A|---------------------------------------------------------------------------|
E|---------------------------------------------------------------------------|


Pre-Chorus
e|---------------------------------------------------------------------------|
B|---------------------------------------------------------------------------|
G|-555-----777---------------------------------------------------------------|
D|-555-555-777-777--5--------------------------------------------------------|
A|-333-555-555-777--5--------------------------------------------------------|
E|-----333-----555--3--------------------------------------------------------|


Chorus
e|---------------------------------------------------------------------------|
B|---------------------------------------------------------------------------|
G|----------------777/5/7/5--121212/10/12/10/---555/777----------------------|
D|-------3--------777/5/7/5--121212/10/12/10/---555/777--5-------------------|
A|-0-3-0---5-3----555/3/5/3--101010/8-/10/8-/---333/555--5-------------------
E|-------------------------------------------------------3-------------------|


| /  slide 
| b  bend
| h  hammer-on
| p  pull-off
| ~  vibrato
| +  harmonic
| x  Mute note
===============================================================================
Tap to rate this tab
# A B C D E F G H I J K L M N O P Q R S T U V W X Y Z