Song name
# A B C D E F G H I J K L M N O P Q R S T U V W X Y Z

Jeremiah Freed - Peace And War tab

-------------------------------------------------------------------------------
			     Peace and War - Jeremiah Freed
-------------------------------------------------------------------------------
Tabbed by: SKooL-z
Email: skool_z@hotmail.com

Tuning: Half-Step Down

Listen to the song to get the rythym


Intro/Bridge
e|---------------------------------------------------------------------------|
B|-------------------~~------------------------------------------------------|
G|-------------------88---------------12-8-----------------------------------|
D|-10-10h12-8-10p8-8----10----10-10-8----------------------------------------|
A|---------------------------------------------------------------------------|
E|---------------------------------------------------------------------------|

e|---------------------------------------------------------------------------|
B|-------------------~~~-----------------------------------------------------|
G|-------------------888---------8-------------------------------------------|
D|-10-10h12-8-10p8-8-----10-10-8---10-8--------------------------------------|
A|---------------------------------------------------------------------------|
E|---------------------------------------------------------------------------|


Verse
e|---------------------------------------------------------------------------|
B|---------------------------------------------------------------------------|
G|-5-5--3-3--------555------5-5--3-3--------333------------------------------|
D|-5-5--3-3--33333-555------5-5--3-3--33333-333------------------------------|
A|-3-3--1-1--33333-333------3-3--1-1--33333-111------------------------------|
E|-----------11111--------------------11111----------------------------------|


Chorus
e|---------------------------------------------------------------------------|
B|---------------------------------------------------------------------------|
G|--------55555---------55555---------55555--33333333------------------------|
D|-33333--55555--33333--55555--33333--55555--33333333------------------------|
A|-33333--33333--33333--33333--33333--33333--11111111------------------------|
E|-11111---------11111---------11111-----------------------------------------|



| /  slide 
| b  bend
| h  hammer-on
| p  pull-off
| ~  vibrato
| +  harmonic
| x  Mute note
===============================================================================
Tap to rate this tab
# A B C D E F G H I J K L M N O P Q R S T U V W X Y Z