Guitaretab - guitar tabs
Song name
# A B C D E F G H I J K L M N O P Q R S T U V W X Y Z

Jeremiah Freed - Rolling Backwards tab

-------------------------------------------------------------------------------
			     Rolling Backwards - Jeremiah Freed
-------------------------------------------------------------------------------
Tabbed by: SKooL-z
Email: skool_z@hotmail.com

Tuning: Half-Step Down 

Listen to the song to get the rythym


Intro/Verse
e|-00000-----3333--0000--0000000---------------------------------------------|
B|-00000--11-3333--3333--0000000---------------------------------------------|
G|-00000-----------2222--2222222---------------------------------------------|
D|-22222--22-------0000--2222222---------------------------------------------|
A|-22222--33-2222--------0000000---------------------------------------------|
E|-00000-----3333------------------------------------------------------------|


Pre-Chorus
e|---------000000----------000000--------------------------------------------|
B|-111111--000000--111111--000000--------------------------------------------|
G|---------222222----------222222--------------------------------------------|
D|-222222--222222--222222--222222--------------------------------------------|
A|-333333--000000--333333--000000--------------------------------------------|
E|---------------------------------------------------------------------------|

[ Tab from: http://www.guitaretab.com/j/jeremiah-freed/55681.html ]
Chorus
e|---------------------------------------------------------------------------|
B|---------------------------------------------------------------------------|
G|-------5555555--777777-------------------5555555--777777-------------------|
D|-2222--5555555--777777--555-444----2222--5555555--777777--555-444----------|
A|-2222--3333333--555555--555-444----2222--3333333--555555--555-444----------|
E|-0000-------------------333-222----0000-------------------333-222----------|

e|---------------------------------------------------------------------------|
B|---------------------------------------------------------------------------|
G|-------7777777--5555----------555555555/77777777777777---------------------|
D|-2222--7777777--5555--555555--555555555/77777777777777---------------------|
A|-2222--5555555--3333--555555--333333333/55555555555555---------------------|
E|-0000-----------------333333-----------------------------------------------|


Bridge
e|---------------------------------------------------------------------------|
B|---------------------------------------------------------------------------|
G|-555555--------------------------------------------------------------------|
D|-555555--2-----------------------------------------------------------------|
A|-333333--2-----------------------------------------------------------------|
E|---------0-----------------------------------------------------------------|


Outro
e|------0--------0--------0---0----------------------------------------------|
B|-111--0---111--0---111--0---0----------------------------------------------|
G|------0--------0--------0---2----------------------------------------------|
D|-222--2---222--2---222--2---2----------------------------------------------|
A|-333--2---333--2---333--2---0----------------------------------------------|
E|------0--------0--------0--------------------------------------------------|




| /  slide 
| b  bend
| h  hammer-on
| p  pull-off
| ~  vibrato
| +  harmonic
| x  Mute note
===============================================================================
Related for Rolling Backwards tab
Rolling Backwards chords by Jeremiah Freed