Song name
# A B C D E F G H I J K L M N O P Q R S T U V W X Y Z

Jeremiah - Birthday Sex tab

Birthday Sex by Jeremiah
Standard

Note: This is how i play the song. 
If you want the recorded version, which is already out there just google it. 
You can play this anywhere on the fret board to suit your voice. 
The original is played two frets up.


Intro:

e|---7--7----10----10--7--7-7-5---------------|
B|--8--8---12----12---8--8------8-8-7-5-------|
G|-9--9--11----11----9--9---------------------|
D|--------------------------------------------|
A|--------------------------------------------|
E|--------------------------------------------|


e|-----------------------------------------------------------------|
B|-------8-------7--------8-------7--------8-------7-----5-----7---|
G|-----9---9----7-7-----9---9----7-7-----9---9----7-7---5-5---7-7--|
D|---9---------7------9---------7------9---------7-----5-----7-----|
A|-7----------9-----7----------9-----7----------9-----7-----9------|
E|-----------7----------------7----------------7-----5-----7-------|


Verse/Chorus/Bridge:

It's what i use for the whole song pretty much. The Bridge is a bit different though.


e|-----x-777-----x-777----|
B|---8-x-888-----x-777----|
G|---9-x-999---7-x-777----|
D|---9-x-999---7-x-777----| x3
A|-7---x-777---9-x-999----|
E|-----x-----7---x-777----|



e|-----x-555-----x-777------|
B|-----x-555-----x-777------|
G|---5-x-555---7-x-777------|
D|---5-x-555---7-x-777------|
A|---7-x-777---9-x-999------|
E|-5---x-555-7---x-777------|

Repeat this the whole song pretty much, the last verse/bridge doesn't have the 
last set of chords though.
So yeah, pretty simple song to play.
Have fun.
Tap to rate this tab
# A B C D E F G H I J K L M N O P Q R S T U V W X Y Z