Song name
# A B C D E F G H I J K L M N O P Q R S T U V W X Y Z

Jeremy Camp - No Matter What It Takes tab

   intro/verse                                                                x4
 e--------------------------------------------------------------------------|
 b--------------------------------------------------------------------------|
 g-----7--7--7--------7--7--7--------3--3--3--------5--5--5-----------------|
 d-----7--7--7--------7--7--7--------3--3--3--------5--5--5-----------------|
 a-----5--5--5--------5--5--5-----1--1--1--1-----3--3--3--3-----------------|
 D--0--------------0--------------------------------------------------------|

   pre-chorus
 e--------------------------------------------------------------------------|
 b--------------------------------------------------------------------------|
 g--------------------------------------------------------------------------|
 d--5-5-5-5-5-5-5-5-5---8-8-8-8---------------------------------------------|
 a--5-5-5-5-5-5-5-5-5---8-8-8-8----x-x----xx----xx--------------------------|
 D--5-5-5-5-5-5-5-5-5---8-8-8-8----x-x----xx----xx--------------------------|


 chorus

 e------------------------------------------------------------|
 b------------------------------------------------------------|
 g--7-7-7-7-7-7--5-5-5-5-5-5--3-3-3-3-3-3--5-5-5-5-5-5--------|
 d--7-7-7-7-7-7--5-5-5-5-5-5--3-3-3-3-3-3--5-5-5-5-5-5--------|
 a--5-5-5-5-5-5--3-3-3-3-3-3--1-1-1-1-1-1--3-3-3-3-3-3--------|
 D------------------------------------------------------------|

 e------------------------------------------------------------|
 b------------------------------------------------------------|
 g--7-7-7-7-7-7--5-5-5-5-5-5--3-3--5-5--7-7--3-3--5-5--7-7----|
 d--7-7-7-7-7-7--5-5-5-5-5-5--3-3--5-5--7-7--3-3--5-5--7-7----|
 a--5-5-5-5-5-5--3-3-3-3-3-3--1-1--3-3--5-5--1-1--3-3--5-5----|
 D------------------------------------------------------------|

 verse 2
 pre-chorus                      first time tabbing please bear with me
 chorus                         Not sure about the bridge
 chorus-end on D chord          Please correct me on what's wrong
Tap to rate this tab
 
# A B C D E F G H I J K L M N O P Q R S T U V W X Y Z