Guitaretab - guitar tabs
Song name
# A B C D E F G H I J K L M N O P Q R S T U V W X Y Z

Jeremy Camp - One Day At A Time tab

ONE DAY AT A TIME
-acoustic guitar
-standard tuning
[ Tab from: http://www.guitaretab.com/j/jeremy-camp/136128.html ]
There are a few mistakes but thats as close as I can get...enjoy
INTRO
           tap     tap     tap     tap           tap
E------------------------2-------------------------------2h3p2------------|
G---------3----2--3----3-------2--3-------------3----3---------3----------|
B---------2----2--2----2-------2--2-------------2----2----------2-------2-|
D-------0--------------0--------------0h2p0-------------------------------|
A---0h2--------4---------------0--------------------------------------0---|
E---------------------------------------------3-----2--------------0h2----|

--------0---/
----2h3---3-/
------------/
------------/
--0---------/
------------/
Related for One Day At A Time tab
One Day At A Time chords by Jeremy Camp