Song name
# A B C D E F G H I J K L M N O P Q R S T U V W X Y Z

Jeremy Camp - What It Takes tab

Jeremy Camp-No Matter What                Taylor Chaffin,age 14

   intro/verse                                                                x4
 e-----0--0--0--------0--0--0-----------------------------------------------
 b-----3--3--3--------3--3--3-----------------------------------------------
 g-----2--2--2--------2--2--2--------3--3--3--------5--5--5-----------------
 d--0--0--0--0-----0--0--0--0--------3--3--3--------5--5--5-----------------
 a--------------------------------1--1--1--1-----3--3--3--3-----------------
 E--------------------------------------------------------------------------

   pre-chorus
 e--------------------------------------------------------------------------
 b--------------------------------------------------------------------------
 g--------------------------------------------------------------------------
 d--5-5-5-5-5-5-5-5-5---8-8-8-8---------------------------------------------
 a--5-5-5-5-5-5-5-5-5---8-8-8-8----x-x----xx----xx--------------------------
 E--3-3-3-3-3-3-3-3-3---6-6-6-6----x-x----xx----xx--------------------------


 chorus

 e------------------------------------------------------------|
 b------------------------------------------------------------|
 g--7-7-7-7-7-7--5-5-5-5-5-5--3-3-3-3-3-3--5-5-5-5-5-5--------|
 d--7-7-7-7-7-7--5-5-5-5-5-5--3-3-3-3-3-3--5-5-5-5-5-5--------|
 a--5-5-5-5-5-5--3-3-3-3-3-3--1-1-1-1-1-1--3-3-3-3-3-3--------|
 E------------------------------------------------------------|

 e------------------------------------------------------------|
 b------------------------------------------------------------|
 g--7-7-7-7-7-7--5-5-5-5-5-5--3-3--5-5--7-7--3-3--5-5--7-7----|
 d--7-7-7-7-7-7--5-5-5-5-5-5--3-3--5-5--7-7--3-3--5-5--7-7----|
 a--5-5-5-5-5-5--3-3-3-3-3-3--1-1--3-3--5-5--1-1--3-3--5-5----|
 E------------------------------------------------------------|

 verse 2
 pre-chorus
 chorus
 chorus-end on D chord           PLEASE RATE,COMMENT,AND VISIT MY PAGE!!!!
Tap to rate this tab
# A B C D E F G H I J K L M N O P Q R S T U V W X Y Z