Song name
# A B C D E F G H I J K L M N O P Q R S T U V W X Y Z

Jeremy Camp - Burden Me tab

|-----5-----5---------5-----5---------5-----5---------5-----5------|
|---3---3-----3-----3---3-----3-----3---3-----3-----3---3-----3----|
|-----------------3-------3-----3----------------------------------|
|---------------------------------3-------3-----3-5-------5-----5--| repeat
|-5-------5-----5--------------------------------------------------|
|------------------------------------------------------------------|

verse: D5, Bb5, F5, G5 2x then the above 2x

bridge?: Bb5, C5 3x

chorus: D5, Bb5, G5, F5  D5, Bb5, A5, C5  2x

part after first chorus

|---------------------------------------------------|
|---------------------------------------------------|
|--------------10-9---------------------10-9---s----|
|-12-12--12-12------12-10--12-12--12-12------12-7---|
|---------------------------------------------------|
|---------------------------------------------------|

verse 2

bridge 2

chorus 2

interlude to solo: G5, F5, C5

outro chorus: D5, Bb5, G5, F5  D5, Bb5, A5, C5 repeatitivly

end on A5 holding it out.
Tap to rate this tab
# A B C D E F G H I J K L M N O P Q R S T U V W X Y Z