Song name
# A B C D E F G H I J K L M N O P Q R S T U V W X Y Z

Jeremy Camp - I Am Nothin tab

Did this by ear but pretty sure its correct.  Enjoy! :D


Capo 6 (Notes relative to capo)

I Am Nothin - Jeremy Camp - Beyond Measure

Intro/Verses 3x

               It seems I'm always.........
e|---0---------0---------|-----------------------|--------------------------|
B|-------3-----------3---|----2--------2-----2---|---3-------3----3---------|
G|---------2-------2-----|---------0-------0-----|------0-------0-----------|
D|---0-------------------|----2------2-----------|--------0-----------------|
A|-----------------------|-----------------------|---2----------------------|
E|-----------------------|-----------------------|--------------------------|

e|---0---------0---------|
B|-----------------------|
G|-------6-----------6---|
D|----------5------5-----|
A|---0-------------------|
E|-----------------------|


Pre-Chorus
               In this piece that's being shaped......
e|-----------------------|-----------------------|--------------------------|
B|---3---------3-----3---|--2-------2----3--0h2-3|---3---------3-----3------|
G|--------0--------0-----|-------0------0--------|--------0--------0--------|
D|---0------0------------|--2-----2--------------|---0------0---------------|
A|-----------------------|-----------------------|--------------------------|
E|-----------------------|-----------------------|--------------------------|

e|---0---------0---------|
B|-----------------------|
G|-------6-----------6---|
D|----------5------5-----|
A|---0-------------------|
E|-----------------------|


Chorus
e|---2----3----3----0----|----3---------0-------|
B|---3----3----3----0----|----3---------0-------|
G|---2----0----0----2----|----0---------2-------|
D|---0----0----2----2----|----2---------2-------|
A|--------2----2----0----|----2---------0-------|
E|--------3----0---------|----0---------0-------|


Bridge
e|---3----3----5----3----|
B|---3----3----5----3----|
G|---4----5----7----5----|
D|---5----5----7----5----|
A|---5----3----5----3----|
E|---3----3----5----3----|
Tap to rate this tab
# A B C D E F G H I J K L M N O P Q R S T U V W X Y Z