Song name
# A B C D E F G H I J K L M N O P Q R S T U V W X Y Z

Jeremy Camp - This Man tab

-------------------------------------------------------------------------------
			     SONG NAME - Band Name
-------------------------------------------------------------------------------
Tabbed by: Michael Smith
Email: matthewwestfan@live.com

Tuning: Standard

(Capo 1)

Intro/Verse:
e|--------------------------------------------------------------------------|
B|--0----0----0----0----0----0----0----0----0----0----0----0----0----0----0-|
G|---0----0---------0----0---------0----0---------0----0---------0----0-----|
D|--------------------------------------------------------------------------|
A|-3----5----5----2----3----3----3----5----5----2----3----3----3----5----5--|
E|--------------------------------------------------------------------------|

Intro/Verse:
e|--------------------------------------------------------------------------|
B|--0----0----0----0----0----0----0----0----0-------------------------------|
G|---0----0---------0----0---------0----0-----------------------------------|
D|--------------------------------------------------------------------------|
A|-7----7----7----5----5----5----5----5----5--------------------------------|
E|--------------------------------------------------------------------------|

Pre-chorus (x2): (And the king was placed/the depth of his grace/And the veil was torn)

    Cadd9   Em     D
e|----00----23---20-0-------------------------------------------------------|
B|---3-----0----3--3-3------------------------------------------------------|
G|--0-----0----2------------------------------------------------------------|
D|-------2----0-------------------------------------------------------------|
A|-3------------------------------------------------------------------------|
E|--------------------------------------------------------------------------|

Chorus: (Let Chords Ring) 

  Em Cadd9 G Gadd9 D/f# (x4) Last Chord: CM7
e|--------------------------------------------------------------------------|
B|------3----3------------------0-------------------------------------------|
G|-0----0----0-2----2-----------0-------------------------------------------|
D|-2---------0-0----0-----------2-------------------------------------------|
A|-2----3-----------------------3-------------------------------------------|
E|-0---------3----2---------------------------------------------------------|

Bridge:

 Cadd9  Amsus4 (x3) Rift:
e|--------------------------------------------------------------------------|
B|-3-------3--------0----0----0----0----0----0----0----0----0----0----0----0|
G|-0(0)----2---------0----0---------0----0---------0----0---------0----0----|
D|-2-------2----------------------------------------------------------------|
A|-3-------0-------3----5----5----2----3----3----3----5----5----7----7----7-|
E|--------------------------------------------------------------------------|

Outro: From this hands (x4) [fading]

  Em7 Dsus2 Cadd9
e|-0----0-------------------------------------------------------------------|
B|-3----3----2--------------------------------------------------------------|
G|-0----2----0--------------------------------------------------------------|
D|-2----0----2--------------------------------------------------------------|
A|-2---------3--------------------------------------------------------------|
E|-0------------------------------------------------------------------------|
Tap to rate this tab
 
# A B C D E F G H I J K L M N O P Q R S T U V W X Y Z