Song name
# A B C D E F G H I J K L M N O P Q R S T U V W X Y Z

Jeremy Camp - There Will Be A Day tab

There will be a day

Intro
Eb-----3----3---------3----3---------3----3---------3----3------|
Bb------3----3---3-----3----3---3-----3----3---3-----3----3---3-|
Gb--------------------------------------------------------------|
Db---2----2---------0----------0---2----2---------0----------0--|
Ab--2-----------3--------2--------2-----------3--------2--------|
Eb-----------------3-----------------------------3--------------|

Verse 1

         I try to...     with every...  but I feel...  and the hurt...
Eb-----3--------------3--------------3--------------3-----------|
Bb------3--------3-----3--------3-----3--------3-----3--------3-|
Gb--------------------------------------------------------------|
Db---2--------------0----------0---2--------------0----------0--|
Ab--2-----------3-----------------2-----------3-----------------|
Eb-----------------3-----------------------------3--------------|

          the many...    His word...    that we will... with wonders...
Eb-----3--------------3--------------3--------------3-----------|
Bb------3--------3-----3--------3-----3--------3-----3--------3-|
Gb--------------------------------------------------------------|
Db---2--------------0----------0---2--------------0----------0--|
Ab--2-----------3-----------------2-----------3-----------------|
Eb-----------------3-----------------------------3--------------|

Cadd9
anew

Pre-chorus
              G/D      D              G/D            Cadd9
But I hold on to this hope and the promise that He brings

                 G/D           D
there will be a place with no more suffering

Chorus

                 Cadd9             Em7            D               G/D
There will be a day with no more tears, no more pain and no more fears

                 Cadd9                        Em7               D
There will be a day when the burdens of this place, will be no more

                        G/D
Weíll see Jesus face to face

     Em7        D Cadd9
But until that day,  weíll hold on to you always

Interlude

Em7         Cadd9 G/D         D Em7          Cadd9 G/D             Em7

Verse 2

Em7                 Cadd9    G/D                         D      Em7
I know the journey seems so long you feel youíre walking on your own

                     Cadd9   G/D                         D    Em7
But there has never been a step where youíve walked out all alone

                    Cadd9     G/D                  D       Em7
Troubled soul donít lose your heart cause joy and peace it brings

                Cadd9     G/D                         D      Cadd9
And the beauty thatís in store outweighs the hurt of lifeís sting

Pre-chorus

Chorus

Bridge

Em                                     C
I canít wait until that day where the very one Iíve lived for always

      G                                D
Will wipe away the sorrow that Iíve faced

    Em                                     C
To touch the scars that rescued me from a life of shame and misery

     G                          D
Oh this is why, this is why I sing

Chorus x3

I'm Jackson Chanje
If you want more of my tabs e-mail me @ chanjejac@yahoo.com

Hope you enjoy the tab
Tap to rate this tab
 
# A B C D E F G H I J K L M N O P Q R S T U V W X Y Z