Song name
# A B C D E F G H I J K L M N O P Q R S T U V W X Y Z

Jeremy Camp - Take A Little Time tab

This is my first tab so i hope every 1 likes it... couldnt find a tab 4 this any 
were so figured i do one myself.

               3:04                  3:08                               3:11
he-------------|--|-0h2~4hb-2~-------|---|-------------------------------|-|
 b-----2p0-----|--|-----------2p0----|---|------------7h9-99-7~-----~4-2-|0|
 g---------2h4-|4~|--------------2h4-|6v~|-4h6-6h8-8v---------~8p6/4~----|-|
 d-2h4---------|--|------------------|---|-------------------------------|-|
 a-------------|--|------------------|---|-------------------------------|-|
LE-------------|--|------------------|---|-------------------------------|-|
                                             3:16
he----------11-14~~--------------------------|--|------------------------|
 b-777-------------14v-12~-------------------|44|2-0~-----54-54-44-2-0---|
 g-----8-10---------------12-14-10-8-9-7-9-7~|--|----6x4x----------------|
 d------------------------.--.--.--.---------|--|------------------------|
 a-------------------------------------------|--|------------------------|
LE-------------------------------------------|--|------------------------|
                    3:23                                              3:27
he-4-2v~------------|---|----------------11h14-14~14-11--------------|---|
 b------4hb---------|7v~|-7h9-12v~-12h14-----------.--.-14--12-9/7/9-|12~|
 g----------6-4-2-8-|---|--------------------------------.--.--------|---|
 d------------------|---|--------------------------------------------|---|
 a------------------|---|--------------------------------------------|---|
LE------------------|---|--------------------------------------------|---|
Tap to rate this tab
 
# A B C D E F G H I J K L M N O P Q R S T U V W X Y Z