Song name
# A B C D E F G H I J K L M N O P Q R S T U V W X Y Z

Jeremy Camp - Overcome tab

These are the lead guitar parts for this song.

Tabbed by Brandon Bushnell
Tuning (EADGBE)

  Volume pedal
E|-------7v------------------------|
B|--10v-----9v--10v--7v--9v--------|
G|---------------------------10v---| 2x
D|---------------------------------|
A|---------------------------------|
e|---------------------------------|


E|----------------------------------------------9---|
B|--15--14--12\7--9--10--15--14--12\7--9--10--------|
G|--------------------------------------------9-----|
D|--------------------------------------------------|
A|--------------------------------------------------|
e|--------------------------------------------------|



  pre chorus
E|------------------------------|
B|--15--14--12\7--9--10---------|
G|-----------------------9--6---|
D|------------------------------|
A|------------------------------|
e|------------------------------|


E|--------------------------9---|
B|--15--14--12\7--9--10---------|
G|-----------------------9------|
D|------------------------------|
A|------------------------------|
e|------------------------------|

     Volume Pedal
E|-------9v--10v--12v--9v------------9v-------10v--9v-----9v--|
B|--10v--------------------12v--10v------10v----------12v-----|
G|------------------------------------------------------------|
D|------------------------------------------------------------|
A|------------------------------------------------------------|
e|------------------------------------------------------------|



Bridge 2nd Time
E|------------------------------------------------|
B|---9--10-10---9--10-10---9--10-10---9--10-10----|
G|------------------------------------------------|
D|------------------------------------------------|
A|------------------------------------------------|
e|------------------------------------------------|

    Bridge 3rd Time 
E|---12--12-12--12--12-12---12--12-12---12--12-12---|
B|---9---10-10---9--10-10---9---10-10---9---10-10---|
G|--------------------------------------------------|
D|--------------------------------------------------|
A|--------------------------------------------------|
e|--------------------------------------------------|

4th Time Power Chords or you can keep doing whats being done in the bridge
the 3rd time.


Well thats it have fun.



Tap to rate this tab
# A B C D E F G H I J K L M N O P Q R S T U V W X Y Z