Song name
# A B C D E F G H I J K L M N O P Q R S T U V W X Y Z

Jeremy Camp - Take My Life tab

INTRO

Electric 1
(full strums)
E|-----------------------------|
B|-----------------------------|
G|-5/7/8/10--5/8\7-13\12/13\12-|
D|-x-x-x-x---x-x-x-x--x--x--x--|
A|-3/5/6/8---3/6\5-11\10/11\10-|
D|-----------------------------|

Electric 2

E|-------------------|
B|-------------------|
G|-------------------|
D|-10-8-6--10-8-6-10-|
A|-10-8-6--10-8-6-10-|
D|-10-8-6--10-8-6-10-|

VERSE 

Electric 1
(mute slightly)
E|-----------------------------------------------------------|
B|-4--4--4-------4--4--4-6-4---4--4--4-------4--4--4---------|
G|---5--5--5-3-5---5--5------5---5--5--5-3-5---5--5--5-3-5bb-|
D|-----------------------------------------------------------|
A|-----------------------------------------------------------|
D|-----------------------------------------------------------|

CHORUS

Electric 1

E|------------------------------------|
B|------------------------------------|
G|------------------5/8\7-13\12/13\12-|
D|-1010-88-66-66-88-x-x-x-x--x--x--x--|
A|-1010-88-66-66-88-3/6\5-11\10/11\10-|
D|-1010-88-66-66-88-------------------|

Electric 2
                    (full strums)
E|-------------------------------|
B|-------------------------------|
G|-------------------------------|
D|-1010-88-66-66-88--10-8-6-5656-|
A|-1010-88-66-66-88--10-8-6-5656-|
D|-1010-88-66-66-88--10-8-6-5656-|

POST 

Electric 1
(mute slightly)
E|-------------------------------|
B|-4--4--4-------4--4--4---------|
G|---5--5--5-3-5---5--5--5-3-5bb-|
D|-------------------------------|
A|-------------------------------|
D|-------------------------------|

VERSE

ADD...

Electric 2
(listen to song to 
know when to play)
E|------------|
B|-13bb-------|
G|------13\\\-|
D|------------|
A|------------|
D|------------|

CHORUS

BRIDGE

Electric 1

E|-------------------------|
B|-12-10-----play-E1-verse-|
G|-------13----------------|
D|-------------------------|
A|-------------------------|
D|-------------------------|

Electric 2
          (palm mute)
E|-----------------|
B|-----------------|
G|-----------------|
D|-3-5-6----10-8-6-|
A|-3-5-6----10-8-6-|
D|-3-5-6----10-8-6-|

CHORUS

INTRO
Tap to rate this tab
# A B C D E F G H I J K L M N O P Q R S T U V W X Y Z