Song name
# A B C D E F G H I J K L M N O P Q R S T U V W X Y Z

Jeremy Camp - This Man tab

Ive seen a few variations of this that came very close but im 99% sure this ones right. Enjoy!


e-|------------|-------------|-------------|----------------|-------------|
B-|--0---0---0-|--0---0---0--|--0---0----0-|---0---0-----0--|--0---0----0-|
G-|---0---0----|---0---0-----|---0---0-----|----0---0-------|---0---0-----|
D-|------------|-------------|-------------|----------------|-------------|
A-|-3---5---5--|2---3---3----|-3----5---5--|--2----3----3---|-3---5----5--|
E-|------------|-------------|-------------|----------------|-------------|

e-|---------------|-------------*|--------------*|
B-|---0----0----0-|---0----0---0-|---0----0---0--|
G-|----0----0-----|----0----0----|----0----0-----|  Once you've played this
D-|---------------|--------------|---------------|    once... this part will
A-|-7----7----7---|--5---5---5---|--5----5---5---|   be used for the verses.
E-|---------------|--------------|---------------|


  *Note, when he plays the last two measures of the intro the second time through (when 
singing the verses) the last two measures change. You drop the last 0. ei:

e-|-------------|------------|
B-|-----0---0---|---0----0---|
G-|------0---0--|----0----0--|
D-|-------------|------------|
A-|---5---5-----|-5----5-----|
E-|-------------|------------|

I'm not completely sure this is right but if you listen closly to the song, you'll hear 
I mean. If you have any questions or comments please feel free to say so. thanks!
Tap to rate this tab
# A B C D E F G H I J K L M N O P Q R S T U V W X Y Z