Song name
# A B C D E F G H I J K L M N O P Q R S T U V W X Y Z

Jeremy Camp - Let It Fade tab

e--------------------------------------|
b--------------------------------------|
g----7---7---7---7---7----6---6---6----|
d------0-------0-------0---0---0---0---|
a--5-------5-------5-------------------|
E--------------------------------------| (2X)
1. Have you been walking on a surface that's uncertain?
1. Have you helped yourself to everything that's empty? yeah

2. Have you been standing on your own feet too long?
2. Have you been looking for a place where you belong?

e----------------------------------|
b----------------------------------|
g--------7-------7-------7-------7-|
d----0-------0-------0-------0-----|
a----------------------------------|
E--5---5---5---5---5---5---5---5---|
1. You can't live

2. You can rest


e----------------------------------|
b----------------------------------|
g--------7-------7-------7-------6-|
d----0-------0-------0-------0-----|
a----------------------------------|
E--7---7---7---7---7---7---7---7---|
1. This way too long

2. You will find rest

e----------------------------------|
b----------------------------------|
g--------7-------7-------7-------7-|
d----0-------0-------0-------0-----|
a----------------------------------|
E--5---5---5---5---5---5---5---5---|
1. There's more than this

2. You can rest

e----------------------------------|
b----------------------------------|
g--------7-------7-------7-------6-|
d----0-------0-------0-------0-----|
a----------------------------------|
E--7---7---7---7---7---7---7---7---|
1. More than this

2. You will find rest

              Em           D                A
Let this old life crumble, let it fade.

               Em           D         A              Bm
Let this new life offered be your saving grace.

               Em           D          A              D
Let this old life crumble, let it fade, let it fade.

e--------------------------------------|
b--------------------------------------|
g----7---7---7---7---7----6---6---6----|
d------0-------0-------0---0---0---0---|
a--5-------5-------5-------------------|
E--------------------------------------| (2X)
1. Have you been holding on to what this world has offered?
1. Have you been giving in to all these masquerades?


e----------------------------------|
b----------------------------------|
g--------7-------7-------7-------7-|
d----0-------0-------0-------0-----|
a----------------------------------|
E--5---5---5---5---5---5---5---5---|
1. It will be gone.

e----------------------------------|
b----------------------------------|
g--------7-------7-------7-------6-|
d----0-------0-------0-------0-----|
a----------------------------------|
E--7---7---7---7---7---7---7---7---|
1. Forever gone

e----------------------------------|
b----------------------------------|
g--------7-------7-------7-------7-|
d----0-------0-------0-------0-----|
a----------------------------------|
E--5---5---5---5---5---5---5---5---|
1. It will be gone.

e----------------------------------|
b----------------------------------|
g--------7-------7-------7-------6-|
d----0-------0-------0-------0-----|
a----------------------------------|
E--7---7---7---7---7---7---7---7---|
1. it will be gone

              Em           D                A
Let this old life crumble, let it fade.

               Em           D         A              Bm
Let this new life offered be your saving grace.

               Em           D          A              D
Let this old life crumble, let it fade, let it fade.


         Em
Are you carrying the weight too much?, are you running from the call?

         D
Let it fade, Oh yeah.


 Em                   Bm
You can rest, you will find rest.

Em                   Bm
You can rest you will find rest.


                Em        D           A
Let this old life crumble, let it fade.

                Em           D                 A        Bm
Let this new life offered be your saving grace.

                Em         D          A              D
Let this old life crumble, let it fade, let it fade.
Tap to rate this tab
# A B C D E F G H I J K L M N O P Q R S T U V W X Y Z