Jeremy Enigk - Shade And The Black Hat chords

Highlighted       Show chord diagrams
"Shade and the Black Hat" by Jeremy Enigk
From the Album:  Return of the Frog Queen

Tabbed by:  R. Cody Fultz
Email:  veraciousiota@gmail.com

Tuning: Standard

Chords:
Name     EADGBe
---------------
Dm7      xx0211
Am/D     xx0210
Dm       xx0121
Dsus2    xx0120
C        x32010
A#sus2   x13311
Fmaj     133200
Cadd11   x32011
Cmaj/G   332010
A#maj7/F x03231
Asus4    x02230


   Dm7         Am/D           Dm7         Am/D
e|-1-----1-----0-----0------|-1-----1-----0-----0------|
B|---1-----1-----1-----1----|---1-----1-----1-----1----|
D|-----2-----2-----2-----2--|-----2-----2-----2-----2--|
G|--------------------------|--------------------------|
A|--------------------------|--------------------------|
E|--------------------------|--------------------------|


Dm Dsus2 / Dm Dsus2

C             C
Shade and the black hat 
      D            D
don't tell me I've paid my 
C             C
regards pouring in wine
      D            D
what I've seen it tears me 
C             C
inside can they hear me 
      D            D
when I speak my knees bowed

C D A#sus2
C   D   A#sus2
who fell here
C    D  A#sus2   C
time away


Dm Dsus2 / Dm Dsus2

Cadd11	 C    Cadd11  C
shame married to go towards
Dm     D        Dm   D
don't tell me I've paid my 
Cadd11	 C    Cadd11  C
regards pouring in wine 
Dm     D        Dm   D
what i've seen it tears me 
Cadd11	 C    Cadd11  C
apart can they hear me
Dm     D        Dm   D
when I speak my tongue's tied

C D A#sus2
C D A#sus2   
      I can hear you I can hear you
C D A#sus2   
      I can hear you I can hear you

C A#sus2 C A#sus2 / C


   Fmaj                       Fmaj 
e|--------------------------|---------------------------|
B|--------------------------|---------------------------|
G|--2-2-2-2-2----2-2-2-2-2--|---2-2-2-2-2--2-2-2-2-2-2--|
D|--3-3-3-3-3----3-3-3-3-3--|---3-3-3-3-3--3-3-3-3-3-3--|
A|--------------------------|--------------3-3-3-3-3-3--|
E|-------------1------------|-1------------1-1-1-1-1-1--|


A#maj7/F  Dmadd9
A#maj7/F  Dmadd9    Cadd11   Cmaj/G
          Won't you stay tonight
A#sus2   C      Dm    Dsus2
I know why just stay tonight
A#maj7/F  Asus4    Cadd11   Cmaj/G
I know that you've gone away
A#sus2   C      Dm    Dsus2
and meant to stay just stay tonight
A#maj7/F  Asus4    Cadd11   Cmaj/G
I know     married   on my words
A#sus2   C      Dm    Dsus2
in there a chance to leave

A#maj7/F  Asus4    Cadd11   Cmaj/G

A#sus2   C      Dm    Dsus2
           Won't you stay tonight 
A#maj7/F  Asus4    Cadd11   Cmaj/G
I know    married    on   my  words
A#sus2   C      Dm    Dsus2  A#maj7/F  Asus4
in there a chance   to leave

Cadd11  Cmaj/G  A#sus2  C 
Dm   Dsus2  A#maj7/F  Asus4


Repeat until end on Dm
Tap to rate this tab
 
# A B C D E F G H I J K L M N O P Q R S T U V W X Y Z