Song name
# A B C D E F G H I J K L M N O P Q R S T U V W X Y Z

Jeremy Messersmith - Easy Lovers Hardly Friends tab

Easy Lovers, Hardly Friends
by Jeremy Messersmith

Tabbed by: Brian Boothe

Standard Tuning
Capo 2nd Fret

Intro (fret numbers relative to capo)

e --------------------------------------------------------------------------|
B --------1-------1---0-----------------------------------------------------|
G ----0-------0-----------2---0-------0-------------------0---------------0-|
D --------------------------------0h2-----2---2---0---0-------0---0---2-----|
A --3---3---3---3---3---3---3---3-------3---3---3---2---2---2---2---0---0---|
E --------------------------------------------------------------------------|

e ---------------------------------------0-----------0-------|
B -------------------------------1-----------1-----------1---|
G ---------------0-----------0-------0-----------0-----------|
D ---2---2---2-------2---2-3---3---3---3---3---3---3---3-----|
A -0---0---0---0---0---0-------------------------------------|
E -----------------------------------------------------------| 2x's


Intro 2nd Guitar (fret numbers without capo)

e --10---9---7---5-------5-----|
B ------------------5h7-----7--|
G -----------------------------|
D -----------------------------|
a -----------------------------|
E -----------------------------|

Verse

e --------------------------------------------------------------------------|
B --------1-------1---0-----------------------------------------------------|
G ----0-------0-----------2---0-------0-------------------0---------------0-|
D --------------------------------0h2-----2---2---0---0-------0---0---2-----|
A --3---3---3---3---3---3---3---3-------3---3---3---2---2---2---2---0---0---|
E --------------------------------------------------------------------------|

e ---------------------------------------0-----------0-------|
B -------------------------------1-----------1-----------1---|
G ---------------0-----------0-------0-----------0-----------|
D ---2---2---2-------2---2-3---3---3---3---3---3---3---3-----|
A -0---0---0---0---0---0-------------------------------------|
E -----------------------------------------------------------|

e --------------------------------------------------------------------------|
B --------1-------1---0-----------------------------------------------------|
G ----0-------0-----------2---0-------0-------------------0---------------0-|
D --------------------------------0h2-----2---2---0---0-------0---0---2-----|
A --3---3---3---3---3---3---3---3-------3---3---3---2---2---2---2---0---0---|
E --------------------------------------------------------------------------|

e ---------------------------------------0-------------------|
B -------------------------------1-----------1---------------|
G ---------------0-----------0-------0-----------0---0---0---|
D ---2---2---2-------2---2-3---3---3---3---3---3---3---2-----|
A -0---0---0---0---0---0-------------------------------------|
E -----------------------------------------------------------|

e ----------------1-------------------------------1------------------|
B --------3-------------------------------3--------------------------|
G ----2-------2-------2---2---2---2---2-------2-------2---2---2---0--|
D --0---0---0---0---0---0---0---0---0---0---0---0---0---0---0---0----|
A -------------------------------------------------------------------|
E -------------------------------------------------------------------|

e ----------------0-------------------------------0------------------|
B --------1-----------1-------------------1-----------1--------------|
G ----0-------0-----------0---0---0---0-------0-----------0---0---0--|
D -------------------------------------------------------------------|
A --3---3---3---3---3---3---3---3---3---3---3---3---3---3---3---3----|
E -------------------------------------------------------------------|

e ----------------1-------------------------------1------------------|
B --------3-------------------------------3--------------------------|
G ----2-------2-------2---2---2---2---2-------2-------2---2---2---0--|
D --0---0---0---0---0---0---0---0---0---0---0---0---0---0---0---0----|
A -------------------------------------------------------------------|
E -------------------------------------------------------------------|

e ----------------0-------------------------------0------------------|
B --------1-----------1-------------------1-----------1--------------|
G ----0-------0-----------0---0---0---0-------0-----------0---0---0--|
D -------------------------------------------------------------------|
A --3---3---3---3---3---3---3---3---3---3---3---3---3---3---3---3----|
E -------------------------------------------------------------------|

Chorus

e ----------------1-------------------------------0------------------|
B --------1-------------------------------1-----------1--------------|
G ----2-------2-------2---2---2---2---2------2------------2---2---2--|
D --3---3---3---3---3---3---3---3------------------------------------|
A ----------------------------------0---0---0---0---0---0---0---0----|
E -------------------------------------------------------------------|

e ----------------1-------------------------------0------------------|
B --------1-------------------------------1-----------1--------------|
G ----2-------2-------2---2---2---0---0------0------------0---0---0--|
D --3---3---3---3---3---3---3---3------------------------------------|
A ----------------------------------3---3---3---3---3---3---3---3----|
E -------------------------------------------------------------------|

e ----------------1-------------------------------0------------------|
B --------1-------------------------------1-----------1--------------|
G ----2-------2-------2---2---2---0---0------0------------0---0---0--|
D --3---3---3---3---3---3---3---3------------------------------------|
A ----------------------------------3---3---3---3---3---3---3---3----|
E -------------------------------------------------------------------|

e ----------------1------------------|
B --------3--------------------------|
G ----2-------2-------2---2---2---0--|
D --0---0---0---0---0---0---0---0----|
A -----------------------------------|
E -----------------------------------|

end of the chorus is followed directly with the intro and then into the verse

Outro

e --------------------------------------------------------------------------|
B --------1-------1---0-----------------------------------------------------|
G ----0-------0-----------2---0-------0-------------------0---------------0-|
D --------------------------------0h2-----2---2---0---0-------0---0---2-----|
A --3---3---3---3---3---3---3---3-------3---3---3---2---2---2---2---0---0---|
E --------------------------------------------------------------------------|

e ---------------------------------------0---------------0---0---|
B -------------------------------1-----------1-------1-------1---|
G ---------------0-----------0-------0-----------0-----------0---|
D ---2---2---2-------2---2-3---3---3---3---3---3---3---3-----2---|
A -0---0---0---0---0---0-------------------------------------3---|
E ---------------------------------------------------------------|
Tap to rate this tab
 
# A B C D E F G H I J K L M N O P Q R S T U V W X Y Z