Song name
# A B C D E F G H I J K L M N O P Q R S T U V W X Y Z

Jeremy Messersmith - 702 tab

7:02
by Jeremy Messersmith

Tabbed by: Ryan Wawrzaszek

First tab, I think the end of the verse might be a little off, but it's close.

Standard Tuning

Intro 

e ---------------------------------------------------------------------|
B ---------------------------------------------------------------------|
G ----0---4---0---0---4---2---0---0---0---4---0---0---4---2---0---0----|
D ---------------------------------------------------------------------|
A ----------------------------------4---4---4---4---4---4---4---4------|
E --3---3---3---3---3---3---3---3--------------------------------------|

e ---------------------------------------------------------------------|
B ---------------------------------------------------------------------|
G ----0---4---0---0---4---2---0---0---0---4---0---0---4---2---0---0----|
D ---------------------------------------------------------------------|
A --3---3---3---3---3---3---3---3--------------------------------------|
E ----------------------------------3---3---3---3---3---3---3---3------| 


Verse
e ---------------------------------------------------------------------|
B ---------------------------------------------------------------------|
G ----0---4---0---0---4---2---0---0---0---4---0---0---4---2---0---0----|
D ---------------------------------------------------------------------|
A ----------------------------------4---4---4---4---4---4---4---4------|
E --3---3---3---3---3---3---3---3--------------------------------------|

e ---------------------------------------------------------------------|
B ---------------------------------------------------------------------|
G ----0---4---0---0---4---2---0---0---0---4---0---0---4---2---0---0----|
D ---------------------------------------------------------------------|
A --3---3---3---3---3---3---3---3--------------------------------------|
E ----------------------------------3---3---3---3---2---2---2---2------|

e ---------------------------------------------------------------------|
B ---------------------------------------------------------------------|
G ----0---4---0---0---4---2---0---0---0---4---0---0---4---2---0---0----|
D ---------------------------------------------------------------------|
A ----------------------------------4---4---4---4---4---4---4---4------|
E --3---3---3---3---3---3---3---3--------------------------------------|

e ---------------------------------------------------------------------|
B ---------------------------------------------------------------------|
G ----0---4---0---0---4---2---0---0---0---4---0---0---4---2---0---0----|
D ---------------------------------------------------------------------|
A --3---3---3---3---3---3---3---3--------------------------------------|
E ----------------------------------3---3---3---3---2---2---2---2------|

e ---------------------------------------------------------------------|
B ---------------------------------------------------------------------|
G ----0---4---0---0---4---2---0---0---0---4---0---0---4---2---0---0----|
D ---------------------------------------------------------------------|
A ----------------------------------0---0---0---0---0---0---0---0------|
E --0---0---0---0---0---0---0---0--------------------------------------|

e ---------------------------------------------------------------------|
B ---------------------------------------------------------------------|
G ----0---4---0---0---4---2---0---0---0---4---0---0---4---2---0---0----|
D ---------------------------------------------------------------------|
A --3---3---3---3---3---3---3---3---5---5---5---5---5---5---5---5------|
E ---------------------------------------------------------------------|


Bridge
e ---------------------------------------------------------------------|
B ---------------------------------------------------------------------|
G ----0---4---0---0---4---2---0---0---0---4---0---0---4---2---0---0----|
D ---------------------------------------------------------------------|
A --3---3---3---3-------------------3---3---3---3----------------------|
E ------------------3---3---3---3-------------------3---3---2---2------|

e ---------------------------------------------------------------------|
B ---------------------------------------------------------------------|
G ----0---4---0---0---4---2---0---0---0---4---0---0---4---2---0---0----|
D ---------------------------------------------------------------------|
A ----------------------------------0---0---0---0---0---0---0---0------|
E --0---0---0---0---0---0---0---0--------------------------------------|

e ---------------------------------------------------------------------|
B ---------------------------------------------------------------------|
G ----0---4---0---0---4---2---0---0---0---4---0---0---4---2---0---0----|
D ---------------------------------------------------------------------|
A --3---3---3---3---3---3---3---3---5---5---5---5---5---5---5---5------|
E ---------------------------------------------------------------------|


Outro
e ---------------------------------------------------------------------|
B ---------------------------------------------------------------------|
G ----0---4---0---0---4---2---0---0---0---4---0---0---4---2---0---0----|
D ---------------------------------------------------------------------|
A ----------------------------------4---4---4---4---4---4---4---4------|
E --3---3---3---3---3---3---3---3--------------------------------------|

e ------------------------------------------||
B ------------------------------------------||
G ----0---4---0---0---4---2---0---0h2-0-----||
D ------------------------------------------||
A --3---3---3---3---3---3---3---3-----------||
E ------------------------------------3-----||

Order
-------
Intro 
Verse
Intro
Verse
Intro
Bridge
Outro
Tap to rate this tab
# A B C D E F G H I J K L M N O P Q R S T U V W X Y Z