Song name
# A B C D E F G H I J K L M N O P Q R S T U V W X Y Z

Jeremy Messersmith - Lazy Bones tab

Lazy Bones

Intro:
|---------------------------|
|---8----6------------------|
|---------------------------|
|-9----7--------------------|
|------------7-5-3-3-2-0----|
|---------------------------|

Riff (After Chorus)
|--------------------------------|
|---8-------6--------------------|
|-----7-------5------------------|
|-9-----9-7-----7----------------|
|-----------------7-5-3-3-2-0----|
|--------------------------------|
*The rhythm isnt exact here, so listen to the album

Verse:
C
He plays all night then sleeps all day
Dm
Waves at the dawn
G
With a stretch and a yawn
He has to go to work at eight
But he might have a cough
So he's sleeping it off

Chorus:
F      C          Dm
Lazy Bones
        F
Never worked so hard
  C     Dm
I hope you never break
F      C          Dm
Lazy bones
                 Riff
Oh, you're working so hard
Tap to rate this tab
# A B C D E F G H I J K L M N O P Q R S T U V W X Y Z