Song name
# A B C D E F G H I J K L M N O P Q R S T U V W X Y Z

Jeremy Messersmith - Organ Donor chords

Highlighted       Show chord diagrams
This song is so good

VERSE:

D     C#        F#m
I was born in a mortuary
G#m     C#
Full of worry
F#m             D
Ice water in my veins
        C#           F#m
Gave my heart in the school library
G#m   C#       F#m
Never knew her name


D       C#            F#m
Lost my tongue in the sanctuary
G#m     C#
"Heaven spare me!"
F#m                   D
Hands raised above my head
        C#           F#m
Sent my brain to the seminary
G#m   C#       F#
Never seen again...



CHORUS:

Bm    E   F#m
So swing low

Bm   C#    F#m
Grey bones

Bm      E    F#m
I don't know

        Bm      C#    F#m
If I'll ever be whole again


VERSE:

D       C#           F#m
Left my spine in the wedding chapel
G#m     C#
Full of people
F#m               D
Feet turning into lead
        C#        F#m
Lost a leg at the iron foundry
G#m        C#       F#m
Where they found me dead


D          C#           F#m
Drained my blood at the mortuary
G#m     C#
No more worry
F#m             D
Ice water in my veins
        C#           F#m
Took my bones to the cemetary
G#m   C#       F#
Where they still remain


CHORUS:

Bm    E   F#m
So swing low

Bm   C#    F#m
Grey bones

Bm      E    F#m
I don't know

        Bm      C#    F#m
If I'll ever be whole again



Solo/Bridge

E|------------7------------------10--9--7---------13--14-------------|
B|--7--9--10-----9--5--7--9--10------------10--9----------14--10--9--|
G|-------------------------------------------------------------------|
D|-------------------------------------------------------------------|
A|-------------------------------------------------------------------|
E|-------------------------------------------------------------------|



E|------------7------------------10--9--7---------13--14--|
B|--7--9--10-----9--5--7--9--10------------10--9----------|
G|--------------------------------------------------------|
D|--------------------------------------------------------|
A|--------------------------------------------------------|


CHORUS:

Bm    E   F#m
So swing low

Bm   C#    F#m
Grey bones

Bm      E    F#m
I don't know

        Bm      C#    F#m
If I'll ever be whole again



I hope you like it :)
Tap to rate this tab
# A B C D E F G H I J K L M N O P Q R S T U V W X Y Z