Song name
# A B C D E F G H I J K L M N O P Q R S T U V W X Y Z

Jeremy Riddle - Fall Afresh tab

Key: B Major (Capo 4: G)

Intro
 B (G)                             E (C)
[----------------------------------------------------------------
[-----0---------------0---------------0---------------------3---0
[-0-2-----0---0---0-2-----0---0---0-2-----0---0---0-2-----0---2--
[-------4---4---0-------4---4---0-------4---4---0-------4---4----
[--------------------------------3-3-3-3-3-3-3-3-3-3-3-3-3-3-3-3-
[3-3-3-3-3-3-3-3-3-3-3-3-3-3-3-3---------------------------------



Verse 
 B (G)            E (C)            B (G)            E (C)         
[----------------------------------------------------------------
[-------------------------------0-------------------------------0
[---0---0---0---0---0---0---0-------0---0---0---0---0---0---0----
[-0---0---0---0---0---0---0---0---0---0---0---0---0---0---0---0--
[----------------3-3-3-3-3-3-3-3-----------------3-3-3-3-3-3-3-3-
[3-3-3-3-3-3-3-3-----------------3-3-3-3-3-3-3-3-----------------

 B (G)            E (C)            G#m (Em)         
[----------------------------------------------------------------
[----------------------------------------------------------------
[---0---0---0---0---0---0---0-------0---0---0---0---0-----0---0--
[-0---0---0---0---0---0---0---0---0---0---0---0---0---0-4---4---0
[----------------3-3-3-3-3-3-3-2---------------------------------
[3-3-3-3-3-3-3-3-----------------0-0-0-0-0-0-0-0-0-0-0-0-0-0-0-0-


Verse Repeat (same as above)

Chorus
 B (G)   E (C)    B (G)   F#(D)    G#m (Em)E (C)    B (G)  F#/A# (D/F#)
[----------------------------------------------------------------
[---0---------------0---------------0---------------0------------
[-----0-----0---0-----0-----0---0-----0-----0---0-----0-----0---0
[-0-----0-0---0---0-----0-0---0---0-----0-0---0---0-----0-0---0--
[--------3-3-3-3---------0-0-0-0---------3-3-3-3-----------------
[3-3-3-3---------3-3-3-3---------0-0-0-0---------3-3-3-3-2-2-2-2-

 G#m (Em)E (C)   B (G)    F#(D)    G#m (Em)E (C)    B (G)   F#(D)
[----------------------------------------------------------------
[---0---------------0---------------0----------------------------
[-----0-----0---0-----0-----0---0-----0-----0---0---0---0---0---0
[-0-----0-0---0---0-----0-0---0---0-----0-0---0---0---0---0---0--
[--------3-3-3-3---------0-0-0-0---------3-3-3-3---------0-0-0-0-
[0-0-0-0---------3-3-3-3---------0-0-0-0---------3-3-3-3---------


Then a short repeat of the intro
 B (G)
[--------------------------------
[-----0---------------------3---0
[-0-2-----0---0---0-2-----0---2--
[-------4---4---0-------4---4----
[--------------------------------
[3-3-3-3-3-3-3-3-3-3-3-3-3-3-3-3-

Verse and Chorus repeated the same

Bridge isn't picked like the above but moves through these chords:

G#m (Em)           B (G)
Come and fill this place
G#m (Em)           B (G)
Let your glory now invade
E   (C)            G#m (Em)
Come and fill this place
E   (C)            F# (D)
Let your glory now invade

Then a drop down chorus just strumming the chords as written above.
Finish with the first bar of the intro.
Tap to rate this tab
# A B C D E F G H I J K L M N O P Q R S T U V W X Y Z