Song name
# A B C D E F G H I J K L M N O P Q R S T U V W X Y Z

Jeremy Soule - Harvest Dawn tab

"Harvest Dawn"
Jeremy Soule
The Elder Scrolls IV: Oblivion Soundtrack
Standard Tuning (EADGBE)
Tabbed by: chronic_stp

I'm pretty sure the part i'm tabbing out is played by a piano. I'm not 100% sure though. 
think it sounds good on guitar. This song sounds best with a clean tone and no 
maybe a little reverb. It sounds great on acoustic too. Finger picking is a must.

I know this is only an intro but this is basically the only playable part for guitar of 
song... there is a REALLY cool flute part after this, i'm gonna mess around with it and 
if I can come up with anything to add to this tab.

e|----------------------------------------------------|
B|----------------------------------------------------|
G|-14----------------12-------------------------------|
D|-----12--15-14-15------12---15--14------12----------|
A|-12--10---------------------13--12--12--12--12------|
E|----------------------------------------------------|


e|----------------------------------------------------|
B|----------------------------------------------------|
G|-14----------------12-14-10-------------------------|
D|-----12--15-14-15------------15--14------12------12-|
A|-12--10----------------------13--12--12------12--10-|
E|----------------------------------------------------|


e|-17--15------13----------------------------------------------------|
B|-15--15--13--13--13--12---15--13-----------------------------------|
G|--------------------------14--12--12--10--9---9--11--9--11--12--11-|
D|-------------------------------------------------------------------|
A|-------------------------------------------------------------------|
E|-------------------------------------------------------------------|
Tap to rate this tab
# A B C D E F G H I J K L M N O P Q R S T U V W X Y Z