Song name
# A B C D E F G H I J K L M N O P Q R S T U V W X Y Z

Jeremy Soule - Dungeon Siege - Fortress Kroth tab

Jeremy Soule - Dungeon Siege - Fortress Kroth
Tabbed by anymower (atom  burrito) on 20:49 9.1.2010

E||-----------------------|----------------------2----3----5----|
B||----0-------0----------|-------------------------------------|
G||--------2----------0---|-------------------------------------|
D||-----------------------|--4-----2----------------------------|
A||-----------------------|-------------------------------------|
E||-----------------------|-------------------------------------|

---------3-2--0----------------|--------------0-----------------|
-------------------------------|----------3---------1--0--------|
-------------------------------|--------------------------------|
-------------------------------|------2-------------------0-----|
-------------------------------|--------------------------------|
-------------------------------|--------------------------------|

--------------------------------------|-----------------------------------|
------0-------------------------------|---------------0-------------------|
-------------0---------------0-----2--|---------0-------------------------|
------------------------4-------------|------------4----------------------|
--------------------------------------|-----------------------------------|
--------------------------------------|-----------------------------------|

--------------------------------|-----------------------2----3----5---|
-----------------0--------0-----|-------------------------------------|
----------------------2---------|-----0-------------------------------|
-------2------------------------|--------4-2--------------------------|
--------------------------------|-------------------------------------|
--------------------------------|-------------------------------------|

------3--2--0---------------------|---------------0---------------|
----------------------------------|-----------3--------1--0-------|
----------------------------------|--------------------------2----|
----------------------------------|------2------------------------|
----------------------------------|-------------------------------|
----------------------------------|-------------------------------|

----------------------------|-----------------------------------||
----0-----------------------|-----------------------------------||
--------0-------2------0----|-----------------------------------||
--------------------------4-|-------0------2--------------------||
----------------------------|-----------------------------------||
----------------------------|-----------------------------------||
Tap to rate this tab
# A B C D E F G H I J K L M N O P Q R S T U V W X Y Z