Song name
# A B C D E F G H I J K L M N O P Q R S T U V W X Y Z

Jeremy Soule - Skyrim Theme tab

------------------------------------------------|
------------------------------------------------|
--4----6----7-----9-----------------------------|
--4----6----7-----9-----------------------------|
--2----4----5-----7-----------------------------|
------------------------------------------------|

this part is the intro, when the monks sing the bass part.

Let the chords ring, and play it slow


This is the higher part :

-------------0-2----2-5-0--------------------------|
-0-2-3----3-----------------3-2-0------------------|
---------------------------------------------------|
---------------------------------------------------|
---------------------------------------------------|
---------------------------------------------------|

then
-----------------------------------------------------------------|
-----------------------------------------------------------------|
-----------------------------------------------------------------|
-----------------------------------------------------------------|
-4-5-4-----4-5-4----4-5-7-5-4-2-----2-0-2---2-0-2---0-2-4-5-4-2--|
-----------------------------------------------------------------|

And you can play this 3 parts 10 hours if you want, it works :)


I hope you'll enjoy this !

Zolf'
Tap to rate this tab
# A B C D E F G H I J K L M N O P Q R S T U V W X Y Z