Song name
# A B C D E F G H I J K L M N O P Q R S T U V W X Y Z

Jeremy Soule - Skyrim tab

First tab sorry if any mistakes Enjoy!!
Played in - Drop D
If any Questions Email ScorchedEarthck@yahoo.com



E----------------------------------------------------------------------------|
A---2--4--5---5-----------------------5--4--2----2--4--5---------------------|
D----------------2--4---4----2--2-----------------------2--4---4-------------|
G-------------------------2-----------------------------------------2--4---4-|
B----------------------------------------------------------------------------|
e----------------------------------------------------------------------------|

E-------------------------------5--4--2---2--0--4--2--------------------------|
A-------------2--4--5--4--2--0------------------------5-4-5-5-4-5-5-4--7--5-0-|
D-----------------------------------------------------------------------------|
G--2--6--4--------------------------------------------------------------------|
B-----------------------------------------------------------------------------|
e-----------------------------------------------------------------------------|

E----------------------------------------------------------------------------|
A-2--2--0--2--2--0--2--2--0--4--5--0--2--2----2--2--2--2--2------------------|
D-------------------------------------------4---5--4--4--5--4----------------|
G----------------------------------------------------------------------------|
B----------------------------------------------------------------------------|
e----------------------------------------------------------------------------|
Tap to rate this tab
 
# A B C D E F G H I J K L M N O P Q R S T U V W X Y Z