Song name
# A B C D E F G H I J K L M N O P Q R S T U V W X Y Z

Jeremy Soule - A Winters Tale tab

-------------------------------------------------------------------------------
                             A WINTER'S TALE - Jeremy Soule
-------------------------------------------------------------------------------
Hi guys, this is my first tab so I hope it's up to standard. This is pretty much accurate I think.
Do rate, thanks!

Tabbed by: Mckhew
E-mail: mckhewy@gmail.com

Tuning: Standard


e|-x----------------------------x--------------------------------------------|
B|-x----------------------------x-----------3--------------------------------|
G|-x----------------------------x--0-2-4--2---4--2-0-2--0----------0-2--5-4-2|
D|-2----------5-4-2-------------2-4-----------------------4-0--2-4-----------|
A|-2--------------2-------------2--------------------------------------------|
E|-0-00-00-00-----0-00-00-00-0--0--------------------------------------------|

e|------------------------------------------------------------------------x--|
B|-----------------3------------------------------------------------------x--|
G|--------0-2-4--2---4--2-0-2--0----------0-2---0-2--0--------------------0--|
D|-1--2-4------------------------4-0--2-4-----4--------4-0-0--*let ring*--0--|
A|----2-------------------------------------------------------------------x--|
E|----0-------------------------------------------------------------------x--|

e|-------------3----------------------------------x--------------3-----------|
B|---3----5--5---3--1-0----0-1-3-1-0---------0----x---3---3-5--5---3-1-0--0--|
G|-4----4---------------2-----------2-0-2--0---2--0-4---4---------------2----|
D|------------------------------------------------0--------------------------|
A|------------------------------------------------x--------------------------|
E|------------------------------------------------x--------------------------|

e|-------------------------------0-------------------------------------------|
B|-1-3-1-0-------------1--0-0-----3-1-3-1-0---0-1-3-1-0--------0------1--0-0-|
G|---------2-0-2-0-2-------2-2-0-----------2-----------2-0-2-0---2--------2--|
D|--------------------0----------------------------------------------0-------|
A|---------------------------------------------------------------------------|
E|---------------------------------------------------------------------------|

e|-----0---------------------------------------------------------------------|
B|------3-1-3-1-0---0-1-3-1-0------------------------------------------------|
G|-2-0-----------2-----------2-0-2-0----------------0------0-2-0---0-2-4-5-4-|
D|-----------------------------------1--*let ring*---1--1-4-----4------------|
A|---------------------------------------------------------------------------|
E|---------------------------------------------------------------------------|

e|--------2-3-5-/8-7---x-----------------------------------------------------|
B|---0-1-3-------------x----------3------------------------------------------|
G|-2-------------------x--0-2-4-2---4--2-0-2--0----------0-2--2-4-5-4-2------|
D|---------------------2-4----------------------4-0--2-4----------------1----|
A|---------------------2-----------------------------------------------------|
E|---------------------0-----------------------------------------------------|

e|-x-------------------------------------------------------------------------|
B|-x------------3------------------------------------------------------------|
G|-x---0-2-4--2---4--2-0-2--0----------0-2---0-2--0--------------------------|
D|-2-4------------------------4-0--2-4-----4--------4-2-*let ring*-----------|
A|-2-------------------------------------------------------------------------|
E|-0-------------------------------------------------------------------------|


Repeat


************************************

| /   slide up
| \   slide down
| h   hammer-on
| p   pull-off
| ~   vibrato
| +   harmonic
| x   Mute note
| b   Bend
| pb  Pre-bend
| br  Bend release
| pbr Pre-bend release
| brb Bend release bend

************************************
Tap to rate this tab
# A B C D E F G H I J K L M N O P Q R S T U V W X Y Z