Song name
# A B C D E F G H I J K L M N O P Q R S T U V W X Y Z

Jeremy Soule - Nerevar Rising Morrowind Theme tab

Nerevar rising (morrowind theme) By Jeremy Soule


-|-------------------------------------------------------------------------|-
-|--------------------------11---------------------------------------------|-
-|----7-8----8--10--12--12-----1012p10--8--7------------------------------|-
-|-10------------------------------------------10--------------------------|-
-|-------------------------------------------------------------------------|-
-|-------------------------------------------------------------------------|-

-|-------------------------------------------------------------------------|-
-|--------------------------11--13--11--15--13----13--15--16--15--13--11-10|-
-|----7-8----8--10--12--12-------------------------------------------------|-
-|-10----------------------------------------------------------------------|-
-|-------------------------------------------------------------------------|-
-|-------------------------------------------------------------------------|-

-|-------------------------------------------------------------------------|-
-|-----------8-------------------------------------------------------------|-
-|-12--10--8---10-8--7----------------------------------------------------|-
-|----------------------10-------------------------------------------------|-
-|-------------------------------------------------------------------------|-
-|-------------------------------------------------------------------------|-
Tap to rate this tab
# A B C D E F G H I J K L M N O P Q R S T U V W X Y Z