Guitaretab - guitar tabs
Song name
# A B C D E F G H I J K L M N O P Q R S T U V W X Y Z

Jeremys - Take You All The Way tab

Jeremy's
Take you all the way

EADGBE


Intro:
|------------------------------|
|-9--9-9-10--10-10-9--9-9-9-10-|
|-9--9-9-9---9--9--9--9-9-9-10-|  play 4x
|-7--7-7-7---7--7--7--7-7-7-7--|
|-7--7-7-7---7--7--7--7-7-7-7--|
|------------------------------|

Verse:
|----------------------|
|----------------------|
|-9--9-9-9--9----------|
|-9--9-9-9--9--11--9-9-| play 6x
|-7--7-7-7--7--11--9-9-|
|--------------9---7-7-|
[ Tab from: http://www.guitaretab.com/j/jeremys/112886.html ]
Prechorus:
|-------|
|-------|
|-2-3-4-| Palm Muted
|-2-3-4-|
|-0-1-2-|
|-------|

Chorus:
|---------|			|-----|
|---------|			|-----|
|---6---4-|			|-2-7-|
|-2-6-6-4-| (2x) followed by: 	|-2-7-|
|-2-4-6-2-|			|-0-5-|
|-0---4---|			|-----|

Intro
Verse
Prechorus
Chorus

Intermezzo:
|--------5--7-|
|-----3--5--7-|
|-6-4-3--6--8-|
|-6-4-1--7--9-|
|-4-2-1--7--9-|
|--------5--7-|

Intro

Chorus 1x followed by:
|-----|
|-----|
|-2---|
|-2-4-|
|-0-2-|
|---2-|

Chorus 



http://www.jeremys.nl/
Related for Take You All The Way tab
Advertisement will be closed in 10 seconds